ISO-10303-21;
HEADER;
FILE_DESCRIPTION (( 'STEP AP203' ),
    '1' );
FILE_NAME ('150208.STEP',
    '2024-12-18T01:03:26',
    ( '' ),
    ( '' ),
    'SwSTEP 2.0',
    'SolidWorks 2020',
    '' );
FILE_SCHEMA (( 'CONFIG_CONTROL_DESIGN' ));
ENDSEC;

DATA;
#1 = DATE_AND_TIME ( #93, #222 ) ;
#2 = SPHERICAL_SURFACE ( 'NONE', #265, 40.00000000000000000 ) ;
#3 = PERSON_AND_ORGANIZATION_ROLE ( 'creator' ) ;
#4 = DIRECTION ( 'NONE',  ( 0.7071067811865621167, 8.659560562355110352E-17, -0.7071067811865330288 ) ) ;
#5 = ORIENTED_EDGE ( 'NONE', *, *, #65, .F. ) ;
#6 = CARTESIAN_POINT ( 'NONE',  ( 12.69999999999999929, 1.555301434917139813E-15, 12.80000000000000071 ) ) ;
#7 = DIRECTION ( 'NONE',  ( 0.000000000000000000, 0.000000000000000000, -1.000000000000000000 ) ) ;
#8 = EDGE_LOOP ( 'NONE', ( #103, #286, #146 ) ) ;
#9 = CC_DESIGN_APPROVAL ( #143, ( #182 ) ) ;
#10 = AXIS2_PLACEMENT_3D ( 'NONE', #28, #54, #283 ) ;
#11 = ADVANCED_FACE ( 'NONE', ( #241 ), #266, .T. ) ;
#12 = EDGE_CURVE ( 'NONE', #77, #194, #177, .T. ) ;
#13 = VERTEX_POINT ( 'NONE', #287 ) ;
#14 = DIRECTION ( 'NONE',  ( 0.000000000000000000, 0.000000000000000000, 1.000000000000000000 ) ) ;
#15 = ORIENTED_EDGE ( 'NONE', *, *, #250, .F. ) ;
#16 = FACE_OUTER_BOUND ( 'NONE', #289, .T. ) ;
#17 = LOCAL_TIME ( 9, 3, 26.00000000000000000, #223 ) ;
#18 = CALENDAR_DATE ( 2024, 18, 12 ) ;
#19 =( NAMED_UNIT ( * ) PLANE_ANGLE_UNIT ( ) SI_UNIT ( $, .RADIAN. ) );
#20 = PERSON_AND_ORGANIZATION ( #64, #214 ) ;
#21 = AXIS2_PLACEMENT_3D ( 'NONE', #139, #115, #209 ) ;
#22 = EDGE_CURVE ( 'NONE', #235, #101, #63, .T. ) ;
#23 = DIRECTION ( 'NONE',  ( 0.000000000000000000, 0.000000000000000000, 1.000000000000000000 ) ) ;
#24 = APPROVAL_STATUS ( 'not_yet_approved' ) ;
#25 = COORDINATED_UNIVERSAL_TIME_OFFSET ( 8, 0, .AHEAD. ) ;
#26 = ADVANCED_FACE ( 'NONE', ( #16 ), #40, .T. ) ;
#27 = DATE_AND_TIME ( #156, #34 ) ;
#28 = CARTESIAN_POINT ( 'NONE',  ( 0.000000000000000000, 0.000000000000000000, 12.80000000000000071 ) ) ;
#29 = ORIENTED_EDGE ( 'NONE', *, *, #12, .T. ) ;
#30 = CARTESIAN_POINT ( 'NONE',  ( -12.69999999999999929, 0.000000000000000000, 10.00000000000000000 ) ) ;
#31 = CARTESIAN_POINT ( 'NONE',  ( 0.000000000000000000, 12.69999999999999929, 10.00000000000000000 ) ) ;
#32 = DIRECTION ( 'NONE',  ( 0.000000000000000000, 0.000000000000000000, -1.000000000000000000 ) ) ;
#33 = EDGE_LOOP ( 'NONE', ( #95, #119, #56, #125, #164 ) ) ;
#34 = LOCAL_TIME ( 9, 3, 26.00000000000000000, #150 ) ;
#35 = CIRCLE ( 'NONE', #200, 12.52884655435419958 ) ;
#36 = ORIENTED_EDGE ( 'NONE', *, *, #106, .F. ) ;
#37 = SPHERICAL_SURFACE ( 'NONE', #219, 75.89999999999999147 ) ;
#38 = EDGE_LOOP ( 'NONE', ( #262, #259, #29, #80, #60 ) ) ;
#39 = ORIENTED_EDGE ( 'NONE', *, *, #116, .T. ) ;
#40 = CONICAL_SURFACE ( 'NONE', #271, 12.52884655435419958, 0.7853981633974688181 ) ;
#41 = EDGE_CURVE ( 'NONE', #114, #77, #268, .T. ) ;
#42 = APPLICATION_PROTOCOL_DEFINITION ( 'international standard', 'config_control_design', 1994, #276 ) ;
#43 = ADVANCED_FACE ( 'NONE', ( #174 ), #37, .F. ) ;
#44 = CARTESIAN_POINT ( 'NONE',  ( 0.000000000000000000, 0.000000000000000000, 0.000000000000000000 ) ) ;
#45 = PERSON_AND_ORGANIZATION_ROLE ( 'design_supplier' ) ;
#46 = CC_DESIGN_APPROVAL ( #176, ( #112 ) ) ;
#47 = APPROVAL_DATE_TIME ( #1, #143 ) ;
#48 = DIRECTION ( 'NONE',  ( 1.000000000000000000, 0.000000000000000000, 0.000000000000000000 ) ) ;
#49 = DATE_AND_TIME ( #160, #288 ) ;
#50 = CARTESIAN_POINT ( 'NONE',  ( 0.000000000000000000, 0.000000000000000000, 12.80000000000000071 ) ) ;
#51 = EDGE_LOOP ( 'NONE', ( #212, #15, #140 ) ) ;
#52 = CARTESIAN_POINT ( 'NONE',  ( 0.000000000000000000, 12.52884655435422090, 12.97115344564578088 ) ) ;
#53 = CIRCLE ( 'NONE', #130, 40.00000000000000000 ) ;
#54 = DIRECTION ( 'NONE',  ( 0.000000000000000000, 0.000000000000000000, -1.000000000000000000 ) ) ;
#55 = CARTESIAN_POINT ( 'NONE',  ( 0.000000000000000000, 0.000000000000000000, 12.97115344564578088 ) ) ;
#56 = ORIENTED_EDGE ( 'NONE', *, *, #22, .T. ) ;
#57 = VECTOR ( 'NONE', #172, 1000.000000000000000 ) ;
#58 = SECURITY_CLASSIFICATION ( '', '', #207 ) ;
#59 = EDGE_CURVE ( 'NONE', #238, #235, #96, .T. ) ;
#60 = ORIENTED_EDGE ( 'NONE', *, *, #22, .F. ) ;
#61 = AXIS2_PLACEMENT_3D ( 'NONE', #180, #69, #86 ) ;
#62 = ORIENTED_EDGE ( 'NONE', *, *, #243, .F. ) ;
#63 = LINE ( 'NONE', #147, #295 ) ;
#64 = PERSON ( 'Î´Ö¸¶¨', 'Î´Ö¸¶¨', 'Î´Ö¸¶¨', ('Î´Ö¸¶¨'), ('Î´Ö¸¶¨'), ('Î´Ö¸¶¨') ) ;
#65 = EDGE_CURVE ( 'NONE', #99, #238, #109, .T. ) ;
#66 = PERSON_AND_ORGANIZATION ( #64, #214 ) ;
#67 = ADVANCED_FACE ( 'NONE', ( #211 ), #189, .T. ) ;
#68 = MECHANICAL_CONTEXT ( 'NONE', #276, 'mechanical' ) ;
#69 = DIRECTION ( 'NONE',  ( 0.000000000000000000, 0.000000000000000000, -1.000000000000000000 ) ) ;
#70 = FACE_OUTER_BOUND ( 'NONE', #8, .T. ) ;
#71 = CIRCLE ( 'NONE', #167, 75.89999999999999147 ) ;
#72 = PERSON_AND_ORGANIZATION ( #64, #214 ) ;
#73 = DATE_AND_TIME ( #251, #120 ) ;
#74 = DIRECTION ( 'NONE',  ( 0.000000000000000000, 0.000000000000000000, 1.000000000000000000 ) ) ;
#75 = CARTESIAN_POINT ( 'NONE',  ( -12.52884655435419958, 0.000000000000000000, 12.97115344564578088 ) ) ;
#76 = DIRECTION ( 'NONE',  ( 1.000000000000000000, 0.000000000000000000, 0.000000000000000000 ) ) ;
#77 = VERTEX_POINT ( 'NONE', #158 ) ;
#78 = AXIS2_PLACEMENT_3D ( 'NONE', #161, #256, #191 ) ;
#79 = CARTESIAN_POINT ( 'NONE',  ( 0.000000000000000000, 0.000000000000000000, 12.97115344564578088 ) ) ;
#80 = ORIENTED_EDGE ( 'NONE', *, *, #228, .T. ) ;
#81 = CC_DESIGN_APPROVAL ( #183, ( #58 ) ) ;
#82 = EDGE_LOOP ( 'NONE', ( #208, #264, #36, #169, #173 ) ) ;
#83 = DIRECTION ( 'NONE',  ( 1.000000000000000000, 0.000000000000000000, 0.000000000000000000 ) ) ;
#84 = ORIENTED_EDGE ( 'NONE', *, *, #285, .T. ) ;
#85 = DIRECTION ( 'NONE',  ( -1.000000000000000000, 0.000000000000000000, 0.000000000000000000 ) ) ;
#86 = DIRECTION ( 'NONE',  ( 0.000000000000000000, 1.000000000000000000, 0.000000000000000000 ) ) ;
#87 = PERSON_AND_ORGANIZATION ( #64, #214 ) ;
#88 = SPHERICAL_SURFACE ( 'NONE', #61, 75.89999999999999147 ) ;
#89 = CLOSED_SHELL ( 'NONE', ( #26, #43, #165, #11, #67, #97, #236, #201 ) ) ;
#90 = APPROVAL_PERSON_ORGANIZATION ( #20, #176, #128 ) ;
#91 = COORDINATED_UNIVERSAL_TIME_OFFSET ( 8, 0, .AHEAD. ) ;
#92 = DIRECTION ( 'NONE',  ( 0.000000000000000000, 0.000000000000000000, 1.000000000000000000 ) ) ;
#93 = CALENDAR_DATE ( 2024, 18, 12 ) ;
#94 = CARTESIAN_POINT ( 'NONE',  ( 0.000000000000000000, 0.000000000000000000, 10.00000000000000000 ) ) ;
#95 = ORIENTED_EDGE ( 'NONE', *, *, #41, .F. ) ;
#96 = LINE ( 'NONE', #75, #141 ) ;
#97 = ADVANCED_FACE ( 'NONE', ( #280 ), #2, .T. ) ;
#98 = CARTESIAN_POINT ( 'NONE',  ( 12.52884655435419958, 1.544821308948480052E-15, 12.97115344564578088 ) ) ;
#99 = VERTEX_POINT ( 'NONE', #52 ) ;
#100 = AXIS2_PLACEMENT_3D ( 'NONE', #206, #32, #232 ) ;
#101 = VERTEX_POINT ( 'NONE', #30 ) ;
#102 = DIRECTION ( 'NONE',  ( 0.000000000000000000, 0.000000000000000000, -1.000000000000000000 ) ) ;
#103 = ORIENTED_EDGE ( 'NONE', *, *, #106, .T. ) ;
#104 = CARTESIAN_POINT ( 'NONE',  ( 0.000000000000000000, 0.000000000000000000, 12.97115344564578088 ) ) ;
#105 = CIRCLE ( 'NONE', #297, 12.69999999999999929 ) ;
#106 = EDGE_CURVE ( 'NONE', #238, #122, #215, .T. ) ;
#107 = DATE_AND_TIME ( #18, #17 ) ;
#108 = AXIS2_PLACEMENT_3D ( 'NONE', #79, #7, #157 ) ;
#109 = CIRCLE ( 'NONE', #237, 12.52884655435419958 ) ;
#110 = CARTESIAN_POINT ( 'NONE',  ( -12.69999999999999929, 0.000000000000000000, 12.80000000000000071 ) ) ;
#111 = PRODUCT_DEFINITION_SHAPE ( 'NONE', 'NONE',  #112 ) ;
#112 = PRODUCT_DEFINITION ( 'Î´Öª', '', #182, #132 ) ;
#113 = CARTESIAN_POINT ( 'NONE',  ( 12.52884655435419958, 1.534341182979819897E-15, 12.97115344564578088 ) ) ;
#114 = VERTEX_POINT ( 'NONE', #6 ) ;
#115 = DIRECTION ( 'NONE',  ( 0.000000000000000000, 0.000000000000000000, 1.000000000000000000 ) ) ;
#116 = EDGE_CURVE ( 'NONE', #13, #194, #53, .T. ) ;
#117 = DIRECTION ( 'NONE',  ( 1.000000000000000000, 0.000000000000000000, 0.000000000000000000 ) ) ;
#118 = DIRECTION ( 'NONE',  ( 0.000000000000000000, 1.000000000000000000, 0.000000000000000000 ) ) ;
#119 = ORIENTED_EDGE ( 'NONE', *, *, #168, .T. ) ;
#120 = LOCAL_TIME ( 9, 3, 26.00000000000000000, #91 ) ;
#121 = VECTOR ( 'NONE', #4, 999.9999999999998863 ) ;
#122 = VERTEX_POINT ( 'NONE', #233 ) ;
#123 = CC_DESIGN_PERSON_AND_ORGANIZATION_ASSIGNMENT ( #230, #45, ( #182 ) ) ;
#124 = CARTESIAN_POINT ( 'NONE',  ( 12.69999999999999929, 1.555301434917139813E-15, 20.00000000000000000 ) ) ;
#125 = ORIENTED_EDGE ( 'NONE', *, *, #250, .T. ) ;
#126 = AXIS2_PLACEMENT_3D ( 'NONE', #197, #195, #242 ) ;
#127 = EDGE_CURVE ( 'NONE', #235, #114, #159, .T. ) ;
#128 = APPROVAL_ROLE ( '' ) ;
#129 =( LENGTH_UNIT ( ) NAMED_UNIT ( * ) SI_UNIT ( .MILLI., .METRE. ) );
#130 = AXIS2_PLACEMENT_3D ( 'NONE', #163, #258, #239 ) ;
#131 = DIRECTION ( 'NONE',  ( 1.000000000000000000, 0.000000000000000000, 0.000000000000000000 ) ) ;
#132 = DESIGN_CONTEXT ( 'detailed design', #166, 'design' ) ;
#133 = PERSON_AND_ORGANIZATION ( #64, #214 ) ;
#134 = SHAPE_DEFINITION_REPRESENTATION ( #111, #179 ) ;
#135 = DIRECTION ( 'NONE',  ( 0.000000000000000000, 0.000000000000000000, -1.000000000000000000 ) ) ;
#136 = PRODUCT_RELATED_PRODUCT_CATEGORY ( 'detail', '', ( #248 ) ) ;
#137 = CARTESIAN_POINT ( 'NONE',  ( 0.000000000000000000, 0.000000000000000000, 47.93033087121699509 ) ) ;
#138 = SPHERICAL_SURFACE ( 'NONE', #78, 40.00000000000000000 ) ;
#139 = CARTESIAN_POINT ( 'NONE',  ( 0.000000000000000000, 0.000000000000000000, 12.97115344564578088 ) ) ;
#140 = ORIENTED_EDGE ( 'NONE', *, *, #228, .F. ) ;
#141 = VECTOR ( 'NONE', #278, 999.9999999999998863 ) ;
#142 = AXIS2_PLACEMENT_3D ( 'NONE', #225, #23, #48 ) ;
#143 = APPROVAL ( #255, 'Î´Ö¸¶¨' ) ;
#144 = ORIENTED_EDGE ( 'NONE', *, *, #274, .F. ) ;
#145 = AXIS2_PLACEMENT_3D ( 'NONE', #94, #187, #205 ) ;
#146 = ORIENTED_EDGE ( 'NONE', *, *, #65, .T. ) ;
#147 = CARTESIAN_POINT ( 'NONE',  ( -12.69999999999999929, 0.000000000000000000, 20.00000000000000000 ) ) ;
#148 = CARTESIAN_POINT ( 'NONE',  ( 0.000000000000000000, 0.000000000000000000, 10.00000000000000000 ) ) ;
#149 = PERSON_AND_ORGANIZATION_ROLE ( 'design_owner' ) ;
#150 = COORDINATED_UNIVERSAL_TIME_OFFSET ( 8, 0, .AHEAD. ) ;
#151 = CARTESIAN_POINT ( 'NONE',  ( -12.52884655435419958, 0.000000000000000000, 12.97115344564578088 ) ) ;
#152 = CC_DESIGN_DATE_AND_TIME_ASSIGNMENT ( #73, #272, ( #58 ) ) ;
#153 = AXIS2_PLACEMENT_3D ( 'NONE', #44, #199, #175 ) ;
#154 = CARTESIAN_POINT ( 'NONE',  ( 0.000000000000000000, 0.000000000000000000, 10.00000000000000000 ) ) ;
#155 = EDGE_CURVE ( 'NONE', #13, #77, #254, .T. ) ;
#156 = CALENDAR_DATE ( 2024, 18, 12 ) ;
#157 = DIRECTION ( 'NONE',  ( -1.000000000000000000, 0.000000000000000000, 0.000000000000000000 ) ) ;
#158 = CARTESIAN_POINT ( 'NONE',  ( 12.69999999999999929, 1.555301434917139813E-15, 10.00000000000000000 ) ) ;
#159 = CIRCLE ( 'NONE', #291, 12.69999999999999929 ) ;
#160 = CALENDAR_DATE ( 2024, 18, 12 ) ;
#161 = CARTESIAN_POINT ( 'NONE',  ( 0.000000000000000000, 0.000000000000000000, 47.93033087121699509 ) ) ;
#162 = VERTEX_POINT ( 'NONE', #98 ) ;
#163 = CARTESIAN_POINT ( 'NONE',  ( 0.000000000000000000, 0.000000000000000000, 47.93033087121699509 ) ) ;
#164 = ORIENTED_EDGE ( 'NONE', *, *, #155, .T. ) ;
#165 = ADVANCED_FACE ( 'NONE', ( #279 ), #138, .T. ) ;
#166 = APPLICATION_CONTEXT ( 'configuration controlled 3d designs of mechanical parts and assemblies' ) ;
#167 = AXIS2_PLACEMENT_3D ( 'NONE', #249, #131, #294 ) ;
#168 = EDGE_CURVE ( 'NONE', #114, #235, #282, .T. ) ;
#169 = ORIENTED_EDGE ( 'NONE', *, *, #59, .T. ) ;
#170 = APPROVAL_PERSON_ORGANIZATION ( #87, #183, #224 ) ;
#171 = AXIS2_PLACEMENT_3D ( 'NONE', #231, #74, #117 ) ;
#172 = DIRECTION ( 'NONE',  ( 0.000000000000000000, 0.000000000000000000, -1.000000000000000000 ) ) ;
#173 = ORIENTED_EDGE ( 'NONE', *, *, #168, .F. ) ;
#174 = FACE_OUTER_BOUND ( 'NONE', #216, .T. ) ;
#175 = DIRECTION ( 'NONE',  ( 1.000000000000000000, 0.000000000000000000, 0.000000000000000000 ) ) ;
#176 = APPROVAL ( #244, 'Î´Ö¸¶¨' ) ;
#177 = CIRCLE ( 'NONE', #260, 12.69999999999999929 ) ;
#178 = APPROVAL_DATE_TIME ( #49, #183 ) ;
#179 = ADVANCED_BREP_SHAPE_REPRESENTATION ( '150208', ( #226, #153 ), #275 ) ;
#180 = CARTESIAN_POINT ( 'NONE',  ( 0.000000000000000000, 0.000000000000000000, 87.82994053184859240 ) ) ;
#181 = DATE_TIME_ROLE ( 'creation_date' ) ;
#182 = PRODUCT_DEFINITION_FORMATION_WITH_SPECIFIED_SOURCE ( 'ÈÎºÎ', '', #248, .NOT_KNOWN. ) ;
#183 = APPROVAL ( #24, 'Î´Ö¸¶¨' ) ;
#184 = PERSON_AND_ORGANIZATION_ROLE ( 'creator' ) ;
#185 = DIRECTION ( 'NONE',  ( 1.000000000000000000, 0.000000000000000000, 0.000000000000000000 ) ) ;
#186 = APPROVAL_ROLE ( '' ) ;
#187 = DIRECTION ( 'NONE',  ( 0.000000000000000000, 0.000000000000000000, 1.000000000000000000 ) ) ;
#188 = ORIENTED_EDGE ( 'NONE', *, *, #127, .F. ) ;
#189 = CYLINDRICAL_SURFACE ( 'NONE', #100, 12.69999999999999929 ) ;
#190 = CC_DESIGN_SECURITY_CLASSIFICATION ( #58, ( #182 ) ) ;
#191 = DIRECTION ( 'NONE',  ( 0.000000000000000000, 1.000000000000000000, 0.000000000000000000 ) ) ;
#192 = ORIENTED_EDGE ( 'NONE', *, *, #221, .T. ) ;
#193 = CONICAL_SURFACE ( 'NONE', #108, 12.52884655435419958, 0.7853981633974688181 ) ;
#194 = VERTEX_POINT ( 'NONE', #31 ) ;
#195 = DIRECTION ( 'NONE',  ( 0.000000000000000000, 0.000000000000000000, -1.000000000000000000 ) ) ;
#196 = ORIENTED_EDGE ( 'NONE', *, *, #59, .F. ) ;
#197 = CARTESIAN_POINT ( 'NONE',  ( 0.000000000000000000, 0.000000000000000000, 20.00000000000000000 ) ) ;
#198 = CC_DESIGN_PERSON_AND_ORGANIZATION_ASSIGNMENT ( #66, #149, ( #248 ) ) ;
#199 = DIRECTION ( 'NONE',  ( 0.000000000000000000, 0.000000000000000000, 1.000000000000000000 ) ) ;
#200 = AXIS2_PLACEMENT_3D ( 'NONE', #270, #202, #273 ) ;
#201 = ADVANCED_FACE ( 'NONE', ( #210 ), #193, .T. ) ;
#202 = DIRECTION ( 'NONE',  ( 0.000000000000000000, 0.000000000000000000, 1.000000000000000000 ) ) ;
#203 = APPLICATION_PROTOCOL_DEFINITION ( 'international standard', 'config_control_design', 1994, #166 ) ;
#204 = PERSON_AND_ORGANIZATION_ROLE ( 'classification_officer' ) ;
#205 = DIRECTION ( 'NONE',  ( 1.000000000000000000, 0.000000000000000000, 0.000000000000000000 ) ) ;
#206 = CARTESIAN_POINT ( 'NONE',  ( 0.000000000000000000, 0.000000000000000000, 20.00000000000000000 ) ) ;
#207 = SECURITY_CLASSIFICATION_LEVEL ( 'unclassified' ) ;
#208 = ORIENTED_EDGE ( 'NONE', *, *, #221, .F. ) ;
#209 = DIRECTION ( 'NONE',  ( 1.000000000000000000, 0.000000000000000000, 0.000000000000000000 ) ) ;
#210 = FACE_OUTER_BOUND ( 'NONE', #82, .T. ) ;
#211 = FACE_OUTER_BOUND ( 'NONE', #33, .T. ) ;
#212 = ORIENTED_EDGE ( 'NONE', *, *, #116, .F. ) ;
#213 = CC_DESIGN_PERSON_AND_ORGANIZATION_ASSIGNMENT ( #296, #3, ( #182 ) ) ;
#214 = ORGANIZATION ( 'Î´Ö¸¶¨', 'Î´Ö¸¶¨', '' ) ;
#215 = CIRCLE ( 'NONE', #21, 12.52884655435419958 ) ;
#216 = EDGE_LOOP ( 'NONE', ( #144, #84, #267 ) ) ;
#217 = CARTESIAN_POINT ( 'NONE',  ( 0.000000000000000000, 0.000000000000000000, 87.82994053184859240 ) ) ;
#218 = EDGE_LOOP ( 'NONE', ( #240, #39, #284 ) ) ;
#219 = AXIS2_PLACEMENT_3D ( 'NONE', #217, #102, #118 ) ;
#220 = DIRECTION ( 'NONE',  ( 0.000000000000000000, 0.000000000000000000, -1.000000000000000000 ) ) ;
#221 = EDGE_CURVE ( 'NONE', #162, #114, #252, .T. ) ;
#222 = LOCAL_TIME ( 9, 3, 26.00000000000000000, #277 ) ;
#223 = COORDINATED_UNIVERSAL_TIME_OFFSET ( 8, 0, .AHEAD. ) ;
#224 = APPROVAL_ROLE ( '' ) ;
#225 = CARTESIAN_POINT ( 'NONE',  ( 0.000000000000000000, 0.000000000000000000, 12.97115344564578088 ) ) ;
#226 = MANIFOLD_SOLID_BREP ( 'NONE', #89 ) ;
#227 = PERSON_AND_ORGANIZATION ( #64, #214 ) ;
#228 = EDGE_CURVE ( 'NONE', #194, #101, #281, .T. ) ;
#229 = UNCERTAINTY_MEASURE_WITH_UNIT (LENGTH_MEASURE( 1.000000000000000082E-05 ), #129, 'distance_accuracy_value', 'NONE');
#230 = PERSON_AND_ORGANIZATION ( #64, #214 ) ;
#231 = CARTESIAN_POINT ( 'NONE',  ( 0.000000000000000000, 0.000000000000000000, 10.00000000000000000 ) ) ;
#232 = DIRECTION ( 'NONE',  ( -1.000000000000000000, 0.000000000000000000, 0.000000000000000000 ) ) ;
#233 = CARTESIAN_POINT ( 'NONE',  ( -1.534341182979824827E-15, -12.52884655435422090, 12.97115344564578088 ) ) ;
#234 = DIRECTION ( 'NONE',  ( 0.000000000000000000, 1.000000000000000000, 0.000000000000000000 ) ) ;
#235 = VERTEX_POINT ( 'NONE', #110 ) ;
#236 = ADVANCED_FACE ( 'NONE', ( #70 ), #88, .F. ) ;
#237 = AXIS2_PLACEMENT_3D ( 'NONE', #55, #92, #185 ) ;
#238 = VERTEX_POINT ( 'NONE', #151 ) ;
#239 = DIRECTION ( 'NONE',  ( 0.000000000000000000, 0.000000000000000000, -1.000000000000000000 ) ) ;
#240 = ORIENTED_EDGE ( 'NONE', *, *, #155, .F. ) ;
#241 = FACE_OUTER_BOUND ( 'NONE', #38, .T. ) ;
#242 = DIRECTION ( 'NONE',  ( -1.000000000000000000, 0.000000000000000000, 0.000000000000000000 ) ) ;
#243 = EDGE_CURVE ( 'NONE', #162, #99, #35, .T. ) ;
#244 = APPROVAL_STATUS ( 'not_yet_approved' ) ;
#245 = APPROVAL_DATE_TIME ( #107, #176 ) ;
#246 = DIRECTION ( 'NONE',  ( 0.000000000000000000, 0.000000000000000000, 1.000000000000000000 ) ) ;
#247 = APPROVAL_PERSON_ORGANIZATION ( #227, #143, #186 ) ;
#248 = PRODUCT ( '150208', '150208', '', ( #68 ) ) ;
#249 = CARTESIAN_POINT ( 'NONE',  ( 0.000000000000000000, 0.000000000000000000, 87.82994053184859240 ) ) ;
#250 = EDGE_CURVE ( 'NONE', #101, #13, #105, .T. ) ;
#251 = CALENDAR_DATE ( 2024, 18, 12 ) ;
#252 = LINE ( 'NONE', #113, #121 ) ;
#253 = DIRECTION ( 'NONE',  ( 0.000000000000000000, 0.000000000000000000, -1.000000000000000000 ) ) ;
#254 = CIRCLE ( 'NONE', #171, 12.69999999999999929 ) ;
#255 = APPROVAL_STATUS ( 'not_yet_approved' ) ;
#256 = DIRECTION ( 'NONE',  ( 0.000000000000000000, 0.000000000000000000, -1.000000000000000000 ) ) ;
#257 = CC_DESIGN_DATE_AND_TIME_ASSIGNMENT ( #27, #181, ( #112 ) ) ;
#258 = DIRECTION ( 'NONE',  ( 1.000000000000000000, 0.000000000000000000, 0.000000000000000000 ) ) ;
#259 = ORIENTED_EDGE ( 'NONE', *, *, #41, .T. ) ;
#260 = AXIS2_PLACEMENT_3D ( 'NONE', #148, #14, #83 ) ;
#261 = CIRCLE ( 'NONE', #142, 12.52884655435419958 ) ;
#262 = ORIENTED_EDGE ( 'NONE', *, *, #127, .T. ) ;
#263 = CC_DESIGN_PERSON_AND_ORGANIZATION_ASSIGNMENT ( #133, #184, ( #112 ) ) ;
#264 = ORIENTED_EDGE ( 'NONE', *, *, #285, .F. ) ;
#265 = AXIS2_PLACEMENT_3D ( 'NONE', #137, #253, #234 ) ;
#266 = CYLINDRICAL_SURFACE ( 'NONE', #126, 12.69999999999999929 ) ;
#267 = ORIENTED_EDGE ( 'NONE', *, *, #243, .T. ) ;
#268 = LINE ( 'NONE', #124, #57 ) ;
#269 = CC_DESIGN_PERSON_AND_ORGANIZATION_ASSIGNMENT ( #72, #204, ( #58 ) ) ;
#270 = CARTESIAN_POINT ( 'NONE',  ( 0.000000000000000000, 0.000000000000000000, 12.97115344564578088 ) ) ;
#271 = AXIS2_PLACEMENT_3D ( 'NONE', #104, #290, #85 ) ;
#272 = DATE_TIME_ROLE ( 'classification_date' ) ;
#273 = DIRECTION ( 'NONE',  ( 1.000000000000000000, 0.000000000000000000, 0.000000000000000000 ) ) ;
#274 = EDGE_CURVE ( 'NONE', #122, #99, #71, .T. ) ;
#275 =( GEOMETRIC_REPRESENTATION_CONTEXT ( 3 ) GLOBAL_UNCERTAINTY_ASSIGNED_CONTEXT ( ( #229 ) ) GLOBAL_UNIT_ASSIGNED_CONTEXT ( ( #129, #19, #293 ) ) REPRESENTATION_CONTEXT ( 'NONE', 'WORKASPACE' ) );
#276 = APPLICATION_CONTEXT ( 'configuration controlled 3d designs of mechanical parts and assemblies' ) ;
#277 = COORDINATED_UNIVERSAL_TIME_OFFSET ( 8, 0, .AHEAD. ) ;
#278 = DIRECTION ( 'NONE',  ( -0.7071067811865621167, 0.000000000000000000, -0.7071067811865330288 ) ) ;
#279 = FACE_OUTER_BOUND ( 'NONE', #51, .T. ) ;
#280 = FACE_OUTER_BOUND ( 'NONE', #218, .T. ) ;
#281 = CIRCLE ( 'NONE', #145, 12.69999999999999929 ) ;
#282 = CIRCLE ( 'NONE', #10, 12.69999999999999929 ) ;
#283 = DIRECTION ( 'NONE',  ( 1.000000000000000000, 0.000000000000000000, 0.000000000000000000 ) ) ;
#284 = ORIENTED_EDGE ( 'NONE', *, *, #12, .F. ) ;
#285 = EDGE_CURVE ( 'NONE', #122, #162, #261, .T. ) ;
#286 = ORIENTED_EDGE ( 'NONE', *, *, #274, .T. ) ;
#287 = CARTESIAN_POINT ( 'NONE',  ( -1.555301434917139813E-15, -12.69999999999999929, 10.00000000000000000 ) ) ;
#288 = LOCAL_TIME ( 9, 3, 26.00000000000000000, #25 ) ;
#289 = EDGE_LOOP ( 'NONE', ( #62, #192, #188, #196, #5 ) ) ;
#290 = DIRECTION ( 'NONE',  ( 0.000000000000000000, 0.000000000000000000, -1.000000000000000000 ) ) ;
#291 = AXIS2_PLACEMENT_3D ( 'NONE', #50, #135, #76 ) ;
#292 = DIRECTION ( 'NONE',  ( 1.000000000000000000, 0.000000000000000000, 0.000000000000000000 ) ) ;
#293 =( NAMED_UNIT ( * ) SI_UNIT ( $, .STERADIAN. ) SOLID_ANGLE_UNIT ( ) );
#294 = DIRECTION ( 'NONE',  ( 0.000000000000000000, 0.000000000000000000, -1.000000000000000000 ) ) ;
#295 = VECTOR ( 'NONE', #220, 1000.000000000000000 ) ;
#296 = PERSON_AND_ORGANIZATION ( #64, #214 ) ;
#297 = AXIS2_PLACEMENT_3D ( 'NONE', #154, #246, #292 ) ;
ENDSEC;
END-ISO-10303-21;
