ISO-10303-21;
HEADER;
FILE_DESCRIPTION (( 'STEP AP214' ),
    '1' );
FILE_NAME ('GLM5-012B-020-IR1.STEP',
    '2024-08-09T03:03:28',
    ( 'Windows User' ),
    ( 'P R C' ),
    'SwSTEP 2.0',
    'SolidWorks 2022',
    '' );
FILE_SCHEMA (( 'AUTOMOTIVE_DESIGN' ));
ENDSEC;

DATA;
#1 = CONICAL_SURFACE ( 'NONE', #106, 6.165966899419030867, 0.7853981633974718157 ) ;
#2 = DIRECTION ( 'NONE',  ( -0.000000000000000000, -0.000000000000000000, -1.000000000000000000 ) ) ;
#3 = EDGE_CURVE ( 'NONE', #96, #206, #186, .T. ) ;
#4 = VERTEX_POINT ( 'NONE', #48 ) ;
#5 = APPLICATION_PROTOCOL_DEFINITION ( 'draft international standard', 'automotive_design', 1998, #270 ) ;
#6 = AXIS2_PLACEMENT_3D ( 'NONE', #181, #274, #65 ) ;
#7 = EDGE_CURVE ( 'NONE', #4, #180, #98, .T. ) ;
#8 = VERTEX_POINT ( 'NONE', #77 ) ;
#9 = DIRECTION ( 'NONE',  ( 1.000000000000000000, 0.000000000000000000, 0.000000000000000000 ) ) ;
#10 = FACE_OUTER_BOUND ( 'NONE', #36, .T. ) ;
#11 = CONICAL_SURFACE ( 'NONE', #160, 6.165966899419030867, 0.7853981633974718157 ) ;
#12 = EDGE_CURVE ( 'NONE', #179, #96, #25, .T. ) ;
#13 = ORIENTED_EDGE ( 'NONE', *, *, #235, .F. ) ;
#14 = DIRECTION ( 'NONE',  ( -0.000000000000000000, -0.000000000000000000, 1.000000000000000000 ) ) ;
#15 = CARTESIAN_POINT ( 'NONE',  ( -6.349999999999999645, 0.000000000000000000, 10.00000000000000000 ) ) ;
#16 = DIRECTION ( 'NONE',  ( 1.000000000000000000, 0.000000000000000000, 0.000000000000000000 ) ) ;
#17 = DIRECTION ( 'NONE',  ( -0.7071067811865642261, 0.000000000000000000, -0.7071067811865308084 ) ) ;
#18 = DIRECTION ( 'NONE',  ( -0.000000000000000000, -0.000000000000000000, -1.000000000000000000 ) ) ;
#19 = CIRCLE ( 'NONE', #217, 6.165966899419028202 ) ;
#20 = ADVANCED_FACE ( 'NONE', ( #165 ), #1, .T. ) ;
#21 = DIRECTION ( 'NONE',  ( 0.000000000000000000, 0.000000000000000000, -1.000000000000000000 ) ) ;
#22 = ORIENTED_EDGE ( 'NONE', *, *, #136, .T. ) ;
#23 = PRESENTATION_STYLE_ASSIGNMENT (( #87 ) ) ;
#24 = ORIENTED_EDGE ( 'NONE', *, *, #95, .F. ) ;
#25 = CIRCLE ( 'NONE', #149, 6.165966899419028202 ) ;
#26 = ORIENTED_EDGE ( 'NONE', *, *, #223, .T. ) ;
#27 = ORIENTED_EDGE ( 'NONE', *, *, #223, .F. ) ;
#28 = EDGE_CURVE ( 'NONE', #4, #206, #155, .T. ) ;
#29 = MECHANICAL_DESIGN_GEOMETRIC_PRESENTATION_REPRESENTATION (  '', ( #42 ), #232 ) ;
#30 = DIRECTION ( 'NONE',  ( 1.000000000000000000, 0.000000000000000000, 0.000000000000000000 ) ) ;
#31 = LINE ( 'NONE', #67, #166 ) ;
#32 = PRODUCT_DEFINITION_SHAPE ( 'NONE', 'NONE',  #273 ) ;
#33 = DIRECTION ( 'NONE',  ( -0.000000000000000000, -0.000000000000000000, 1.000000000000000000 ) ) ;
#34 = DIRECTION ( 'NONE',  ( 0.000000000000000000, 0.000000000000000000, -1.000000000000000000 ) ) ;
#35 = AXIS2_PLACEMENT_3D ( 'NONE', #127, #18, #144 ) ;
#36 = EDGE_LOOP ( 'NONE', ( #126, #182, #79, #24 ) ) ;
#37 = DIRECTION ( 'NONE',  ( 0.000000000000000000, 1.000000000000000000, 0.000000000000000000 ) ) ;
#38 = DIRECTION ( 'NONE',  ( -1.000000000000000000, 0.000000000000000000, 0.000000000000000000 ) ) ;
#39 = CYLINDRICAL_SURFACE ( 'NONE', #35, 6.349999999999999645 ) ;
#40 = CARTESIAN_POINT ( 'NONE',  ( 0.000000000000000000, 0.000000000000000000, 7.990927210561475924 ) ) ;
#41 = EDGE_CURVE ( 'NONE', #113, #4, #228, .T. ) ;
#42 = STYLED_ITEM ( 'NONE', ( #74 ), #47 ) ;
#43 = FILL_AREA_STYLE_COLOUR ( '', #258 ) ;
#44 = EDGE_LOOP ( 'NONE', ( #88, #230, #68, #71 ) ) ;
#45 = CARTESIAN_POINT ( 'NONE',  ( 0.000000000000000000, 4.592425496802574958E-16, 0.4909272105614757575 ) ) ;
#46 = VERTEX_POINT ( 'NONE', #254 ) ;
#47 = MANIFOLD_SOLID_BREP ( 'µ¹½Ç1', #57 ) ;
#48 = CARTESIAN_POINT ( 'NONE',  ( -6.349999999999999645, 0.000000000000000000, 5.200000000000024158 ) ) ;
#49 = VECTOR ( 'NONE', #17, 1000.000000000000114 ) ;
#50 =( GEOMETRIC_REPRESENTATION_CONTEXT ( 3 ) GLOBAL_UNCERTAINTY_ASSIGNED_CONTEXT ( ( #118 ) ) GLOBAL_UNIT_ASSIGNED_CONTEXT ( ( #86, #115, #266 ) ) REPRESENTATION_CONTEXT ( 'NONE', 'WORKASPACE' ) );
#51 =( LENGTH_UNIT ( ) NAMED_UNIT ( * ) SI_UNIT ( .MILLI., .METRE. ) );
#52 = CARTESIAN_POINT ( 'NONE',  ( 0.000000000000000000, 0.000000000000000000, 4.000000000000000000 ) ) ;
#53 = DIRECTION ( 'NONE',  ( -0.000000000000000000, -0.000000000000000000, 1.000000000000000000 ) ) ;
#54 = SPHERICAL_SURFACE ( 'NONE', #189, 7.500000000000000888 ) ;
#55 = SURFACE_SIDE_STYLE ('',( #208 ) ) ;
#56 = CARTESIAN_POINT ( 'NONE',  ( 0.000000000000000000, 0.000000000000000000, 5.384033100581012476 ) ) ;
#57 = CLOSED_SHELL ( 'NONE', ( #264, #173, #192, #202, #282, #119, #250, #20 ) ) ;
#58 = PRODUCT_DEFINITION_FORMATION_WITH_SPECIFIED_SOURCE ( 'ÈÎºÎ', '', #201, .NOT_KNOWN. ) ;
#59 = DIRECTION ( 'NONE',  ( -1.000000000000000000, 1.224646799147353207E-16, 0.000000000000000000 ) ) ;
#60 = CARTESIAN_POINT ( 'NONE',  ( 0.000000000000000000, 0.000000000000000000, 7.990927210561475924 ) ) ;
#61 = COLOUR_RGB ( '',1.000000000000000000, 1.000000000000000000, 1.000000000000000000 ) ;
#62 =( NAMED_UNIT ( * ) PLANE_ANGLE_UNIT ( ) SI_UNIT ( $, .RADIAN. ) );
#63 = ORIENTED_EDGE ( 'NONE', *, *, #41, .T. ) ;
#64 = AXIS2_PLACEMENT_3D ( 'NONE', #94, #140, #278 ) ;
#65 = DIRECTION ( 'NONE',  ( 1.000000000000000000, 0.000000000000000000, 0.000000000000000000 ) ) ;
#66 = DIRECTION ( 'NONE',  ( 1.000000000000000000, 0.000000000000000000, 0.000000000000000000 ) ) ;
#67 = CARTESIAN_POINT ( 'NONE',  ( 6.349999999999999645, 7.776507174585692163E-16, 10.00000000000000000 ) ) ;
#68 = ORIENTED_EDGE ( 'NONE', *, *, #198, .T. ) ;
#69 = VERTEX_POINT ( 'NONE', #226 ) ;
#70 =( GEOMETRIC_REPRESENTATION_CONTEXT ( 3 ) GLOBAL_UNCERTAINTY_ASSIGNED_CONTEXT ( ( #97 ) ) GLOBAL_UNIT_ASSIGNED_CONTEXT ( ( #216, #62, #263 ) ) REPRESENTATION_CONTEXT ( 'NONE', 'WORKASPACE' ) );
#71 = ORIENTED_EDGE ( 'NONE', *, *, #214, .T. ) ;
#72 = SURFACE_STYLE_USAGE ( .BOTH. , #55 ) ;
#73 = ORIENTED_EDGE ( 'NONE', *, *, #247, .F. ) ;
#74 = PRESENTATION_STYLE_ASSIGNMENT (( #72 ) ) ;
#75 = DIRECTION ( 'NONE',  ( -0.000000000000000000, -0.000000000000000000, 1.000000000000000000 ) ) ;
#76 = AXIS2_PLACEMENT_3D ( 'NONE', #183, #14, #161 ) ;
#77 = CARTESIAN_POINT ( 'NONE',  ( 6.349999999999998757, 7.776507174585691177E-16, 4.000000000000000000 ) ) ;
#78 = DIRECTION ( 'NONE',  ( 0.000000000000000000, 0.000000000000000000, -1.000000000000000000 ) ) ;
#79 = ORIENTED_EDGE ( 'NONE', *, *, #147, .F. ) ;
#80 = DIRECTION ( 'NONE',  ( -0.000000000000000000, -0.000000000000000000, 1.000000000000000000 ) ) ;
#81 = AXIS2_PLACEMENT_3D ( 'NONE', #231, #213, #169 ) ;
#82 = DIRECTION ( 'NONE',  ( -0.000000000000000000, -0.000000000000000000, 1.000000000000000000 ) ) ;
#83 = EDGE_CURVE ( 'NONE', #206, #8, #31, .T. ) ;
#84 = ORIENTED_EDGE ( 'NONE', *, *, #3, .T. ) ;
#85 = AXIS2_PLACEMENT_3D ( 'NONE', #52, #33, #9 ) ;
#86 =( LENGTH_UNIT ( ) NAMED_UNIT ( * ) SI_UNIT ( .MILLI., .METRE. ) );
#87 = SURFACE_STYLE_USAGE ( .BOTH. , #154 ) ;
#88 = ORIENTED_EDGE ( 'NONE', *, *, #194, .F. ) ;
#89 = ORIENTED_EDGE ( 'NONE', *, *, #214, .F. ) ;
#90 = VECTOR ( 'NONE', #252, 1000.000000000000114 ) ;
#91 = ORIENTED_EDGE ( 'NONE', *, *, #83, .T. ) ;
#92 = ORIENTED_EDGE ( 'NONE', *, *, #198, .F. ) ;
#93 = VERTEX_POINT ( 'NONE', #45 ) ;
#94 = CARTESIAN_POINT ( 'NONE',  ( 0.000000000000000000, 0.000000000000000000, 5.384033100581012476 ) ) ;
#95 = EDGE_CURVE ( 'NONE', #69, #8, #248, .T. ) ;
#96 = VERTEX_POINT ( 'NONE', #211 ) ;
#97 = UNCERTAINTY_MEASURE_WITH_UNIT (LENGTH_MEASURE( 1.000000000000000082E-05 ), #216, 'distance_accuracy_value', 'NONE');
#98 = LINE ( 'NONE', #15, #243 ) ;
#99 = DIRECTION ( 'NONE',  ( -1.000000000000000000, 0.000000000000000000, 0.000000000000000000 ) ) ;
#100 = AXIS2_PLACEMENT_3D ( 'NONE', #163, #260, #253 ) ;
#101 = VERTEX_POINT ( 'NONE', #190 ) ;
#102 = SPHERICAL_SURFACE ( 'NONE', #129, 7.500000000000000888 ) ;
#103 = FILL_AREA_STYLE_COLOUR ( '', #61 ) ;
#104 = SPHERICAL_SURFACE ( 'NONE', #203, 72.40000000000000568 ) ;
#105 = ADVANCED_BREP_SHAPE_REPRESENTATION ( 'GLM5-012B-020-IR1', ( #47, #191 ), #70 ) ;
#106 = AXIS2_PLACEMENT_3D ( 'NONE', #257, #34, #38 ) ;
#107 = DIRECTION ( 'NONE',  ( -1.000000000000000000, 0.000000000000000000, 0.000000000000000000 ) ) ;
#108 = DIRECTION ( 'NONE',  ( 1.000000000000000000, -0.000000000000000000, 0.000000000000000000 ) ) ;
#109 = AXIS2_PLACEMENT_3D ( 'NONE', #146, #82, #193 ) ;
#110 = CARTESIAN_POINT ( 'NONE',  ( 0.000000000000000000, 0.000000000000000000, 7.990927210561475924 ) ) ;
#111 = CARTESIAN_POINT ( 'NONE',  ( 0.000000000000000000, 0.000000000000000000, 10.00000000000000000 ) ) ;
#112 = EDGE_CURVE ( 'NONE', #93, #69, #117, .T. ) ;
#113 = VERTEX_POINT ( 'NONE', #209 ) ;
#114 = EDGE_LOOP ( 'NONE', ( #132, #84, #150, #152, #92 ) ) ;
#115 =( NAMED_UNIT ( * ) PLANE_ANGLE_UNIT ( ) SI_UNIT ( $, .RADIAN. ) );
#116 = ORIENTED_EDGE ( 'NONE', *, *, #279, .F. ) ;
#117 = CIRCLE ( 'NONE', #81, 7.500000000000000888 ) ;
#118 = UNCERTAINTY_MEASURE_WITH_UNIT (LENGTH_MEASURE( 1.000000000000000082E-05 ), #86, 'distance_accuracy_value', 'NONE');
#119 = ADVANCED_FACE ( 'NONE', ( #10 ), #102, .T. ) ;
#120 = DIRECTION ( 'NONE',  ( -0.000000000000000000, -0.000000000000000000, 1.000000000000000000 ) ) ;
#121 = DIRECTION ( 'NONE',  ( 1.000000000000000000, 0.000000000000000000, 0.000000000000000000 ) ) ;
#122 = AXIS2_PLACEMENT_3D ( 'NONE', #259, #59, #139 ) ;
#123 = CARTESIAN_POINT ( 'NONE',  ( -7.551131627022271356E-16, -6.165966899419214720, 5.384033100581012476 ) ) ;
#124 = CIRCLE ( 'NONE', #76, 6.349999999999998757 ) ;
#125 = DIRECTION ( 'NONE',  ( -0.000000000000000000, -0.000000000000000000, -1.000000000000000000 ) ) ;
#126 = ORIENTED_EDGE ( 'NONE', *, *, #112, .F. ) ;
#127 = CARTESIAN_POINT ( 'NONE',  ( 0.000000000000000000, 0.000000000000000000, 10.00000000000000000 ) ) ;
#128 = CIRCLE ( 'NONE', #239, 6.165966899419028202 ) ;
#129 = AXIS2_PLACEMENT_3D ( 'NONE', #40, #205, #37 ) ;
#130 = ORIENTED_EDGE ( 'NONE', *, *, #28, .T. ) ;
#131 = SURFACE_STYLE_FILL_AREA ( #197 ) ;
#132 = ORIENTED_EDGE ( 'NONE', *, *, #136, .F. ) ;
#133 = CARTESIAN_POINT ( 'NONE',  ( 0.000000000000000000, 0.000000000000000000, 0.000000000000000000 ) ) ;
#134 = ORIENTED_EDGE ( 'NONE', *, *, #147, .T. ) ;
#135 = AXIS2_PLACEMENT_3D ( 'NONE', #110, #108, #21 ) ;
#136 = EDGE_CURVE ( 'NONE', #96, #46, #19, .T. ) ;
#137 = PRODUCT_DEFINITION_CONTEXT ( 'detailed design', #171, 'design' ) ;
#138 = ORIENTED_EDGE ( 'NONE', *, *, #12, .T. ) ;
#139 = DIRECTION ( 'NONE',  ( -1.224646799147353207E-16, -1.000000000000000000, 0.000000000000000000 ) ) ;
#140 = DIRECTION ( 'NONE',  ( -0.000000000000000000, -0.000000000000000000, 1.000000000000000000 ) ) ;
#141 = CARTESIAN_POINT ( 'NONE',  ( 0.000000000000000000, 0.000000000000000000, 4.000000000000000000 ) ) ;
#142 = ORIENTED_EDGE ( 'NONE', *, *, #112, .T. ) ;
#143 = FACE_OUTER_BOUND ( 'NONE', #272, .T. ) ;
#144 = DIRECTION ( 'NONE',  ( -1.000000000000000000, 0.000000000000000000, 0.000000000000000000 ) ) ;
#145 = CIRCLE ( 'NONE', #122, 72.40000000000000568 ) ;
#146 = CARTESIAN_POINT ( 'NONE',  ( 0.000000000000000000, 0.000000000000000000, 4.000000000000000000 ) ) ;
#147 = EDGE_CURVE ( 'NONE', #8, #269, #124, .T. ) ;
#148 = DIRECTION ( 'NONE',  ( 0.000000000000000000, 1.000000000000000000, 0.000000000000000000 ) ) ;
#149 = AXIS2_PLACEMENT_3D ( 'NONE', #184, #53, #121 ) ;
#150 = ORIENTED_EDGE ( 'NONE', *, *, #28, .F. ) ;
#151 = DIRECTION ( 'NONE',  ( -1.000000000000000000, 0.000000000000000000, 0.000000000000000000 ) ) ;
#152 = ORIENTED_EDGE ( 'NONE', *, *, #41, .F. ) ;
#153 = PRODUCT_CONTEXT ( 'NONE', #270, 'mechanical' ) ;
#154 = SURFACE_SIDE_STYLE ('',( #131 ) ) ;
#155 = CIRCLE ( 'NONE', #224, 6.349999999999999645 ) ;
#156 = EDGE_LOOP ( 'NONE', ( #271, #175, #89, #63, #13 ) ) ;
#157 = ORIENTED_EDGE ( 'NONE', *, *, #95, .T. ) ;
#158 = EDGE_CURVE ( 'NONE', #101, #46, #246, .T. ) ;
#159 = ORIENTED_EDGE ( 'NONE', *, *, #158, .F. ) ;
#160 = AXIS2_PLACEMENT_3D ( 'NONE', #241, #261, #176 ) ;
#161 = DIRECTION ( 'NONE',  ( 1.000000000000000000, 0.000000000000000000, 0.000000000000000000 ) ) ;
#162 = ORIENTED_EDGE ( 'NONE', *, *, #83, .F. ) ;
#163 = CARTESIAN_POINT ( 'NONE',  ( 0.000000000000000000, 0.000000000000000000, 77.52099208968219557 ) ) ;
#164 = DIRECTION ( 'NONE',  ( 0.000000000000000000, 1.000000000000000000, 0.000000000000000000 ) ) ;
#165 = FACE_OUTER_BOUND ( 'NONE', #156, .T. ) ;
#166 = VECTOR ( 'NONE', #244, 1000.000000000000000 ) ;
#167 = DIRECTION ( 'NONE',  ( -1.000000000000000000, 0.000000000000000000, 0.000000000000000000 ) ) ;
#168 = STYLED_ITEM ( 'NONE', ( #23 ), #105 ) ;
#169 = DIRECTION ( 'NONE',  ( -1.224646799147353207E-16, -1.000000000000000000, 0.000000000000000000 ) ) ;
#170 = FACE_OUTER_BOUND ( 'NONE', #114, .T. ) ;
#171 = APPLICATION_CONTEXT ( 'automotive_design' ) ;
#172 = FACE_OUTER_BOUND ( 'NONE', #44, .T. ) ;
#173 = ADVANCED_FACE ( 'NONE', ( #255 ), #104, .F. ) ;
#174 = SPHERICAL_SURFACE ( 'NONE', #280, 72.40000000000000568 ) ;
#175 = ORIENTED_EDGE ( 'NONE', *, *, #12, .F. ) ;
#176 = DIRECTION ( 'NONE',  ( -1.000000000000000000, 0.000000000000000000, 0.000000000000000000 ) ) ;
#177 = ORIENTED_EDGE ( 'NONE', *, *, #194, .T. ) ;
#178 = PRESENTATION_LAYER_ASSIGNMENT (  '', '', ( #42 ) ) ;
#179 = VERTEX_POINT ( 'NONE', #123 ) ;
#180 = VERTEX_POINT ( 'NONE', #185 ) ;
#181 = CARTESIAN_POINT ( 'NONE',  ( 0.000000000000000000, 0.000000000000000000, 5.200000000000024158 ) ) ;
#182 = ORIENTED_EDGE ( 'NONE', *, *, #247, .T. ) ;
#183 = CARTESIAN_POINT ( 'NONE',  ( 0.000000000000000000, 0.000000000000000000, 4.000000000000000000 ) ) ;
#184 = CARTESIAN_POINT ( 'NONE',  ( 0.000000000000000000, 0.000000000000000000, 5.384033100581012476 ) ) ;
#185 = CARTESIAN_POINT ( 'NONE',  ( -6.349999999999998757, 0.000000000000000000, 4.000000000000000000 ) ) ;
#186 = LINE ( 'NONE', #212, #90 ) ;
#187 = FACE_OUTER_BOUND ( 'NONE', #277, .T. ) ;
#188 = FILL_AREA_STYLE ('',( #103 ) ) ;
#189 = AXIS2_PLACEMENT_3D ( 'NONE', #60, #167, #164 ) ;
#190 = CARTESIAN_POINT ( 'NONE',  ( 0.000000000000000000, 4.433221412913419147E-15, 5.120992089682182780 ) ) ;
#191 = AXIS2_PLACEMENT_3D ( 'NONE', #133, #199, #66 ) ;
#192 = ADVANCED_FACE ( 'NONE', ( #187 ), #54, .T. ) ;
#193 = DIRECTION ( 'NONE',  ( 1.000000000000000000, 0.000000000000000000, 0.000000000000000000 ) ) ;
#194 = EDGE_CURVE ( 'NONE', #101, #179, #145, .T. ) ;
#195 = CIRCLE ( 'NONE', #6, 6.349999999999999645 ) ;
#196 = ORIENTED_EDGE ( 'NONE', *, *, #279, .T. ) ;
#197 = FILL_AREA_STYLE ('',( #43 ) ) ;
#198 = EDGE_CURVE ( 'NONE', #46, #113, #275, .T. ) ;
#199 = DIRECTION ( 'NONE',  ( 0.000000000000000000, 0.000000000000000000, 1.000000000000000000 ) ) ;
#200 = APPLICATION_PROTOCOL_DEFINITION ( 'draft international standard', 'automotive_design', 1998, #171 ) ;
#201 = PRODUCT ( 'GLM5-012B-020-IR1', 'GLM5-012B-020-IR1', '', ( #153 ) ) ;
#202 = ADVANCED_FACE ( 'NONE', ( #143 ), #39, .T. ) ;
#203 = AXIS2_PLACEMENT_3D ( 'NONE', #276, #99, #229 ) ;
#204 =( NAMED_UNIT ( * ) PLANE_ANGLE_UNIT ( ) SI_UNIT ( $, .RADIAN. ) );
#205 = DIRECTION ( 'NONE',  ( -1.000000000000000000, 0.000000000000000000, 0.000000000000000000 ) ) ;
#206 = VERTEX_POINT ( 'NONE', #281 ) ;
#207 = UNCERTAINTY_MEASURE_WITH_UNIT (LENGTH_MEASURE( 1.000000000000000082E-05 ), #51, 'distance_accuracy_value', 'NONE');
#208 = SURFACE_STYLE_FILL_AREA ( #188 ) ;
#209 = CARTESIAN_POINT ( 'NONE',  ( -6.165966899419028202, 0.000000000000000000, 5.384033100581012476 ) ) ;
#210 = AXIS2_PLACEMENT_3D ( 'NONE', #111, #2, #151 ) ;
#211 = CARTESIAN_POINT ( 'NONE',  ( 6.165966899419028202, 7.663819400803865896E-16, 5.384033100581012476 ) ) ;
#212 = CARTESIAN_POINT ( 'NONE',  ( 6.165966899419030867, 7.551131627022044559E-16, 5.384033100580984055 ) ) ;
#213 = DIRECTION ( 'NONE',  ( -1.000000000000000000, 1.224646799147353207E-16, 0.000000000000000000 ) ) ;
#214 = EDGE_CURVE ( 'NONE', #113, #179, #128, .T. ) ;
#215 = AXIS2_PLACEMENT_3D ( 'NONE', #141, #80, #16 ) ;
#216 =( LENGTH_UNIT ( ) NAMED_UNIT ( * ) SI_UNIT ( .MILLI., .METRE. ) );
#217 = AXIS2_PLACEMENT_3D ( 'NONE', #56, #75, #237 ) ;
#218 = PRESENTATION_LAYER_ASSIGNMENT (  '', '', ( #168 ) ) ;
#219 = CARTESIAN_POINT ( 'NONE',  ( 0.000000000000000000, 0.000000000000000000, 77.52099208968219557 ) ) ;
#220 = PRODUCT_RELATED_PRODUCT_CATEGORY ( 'part', '', ( #201 ) ) ;
#221 = EDGE_LOOP ( 'NONE', ( #162, #245, #222, #26, #157 ) ) ;
#222 = ORIENTED_EDGE ( 'NONE', *, *, #7, .T. ) ;
#223 = EDGE_CURVE ( 'NONE', #180, #69, #256, .T. ) ;
#224 = AXIS2_PLACEMENT_3D ( 'NONE', #225, #78, #30 ) ;
#225 = CARTESIAN_POINT ( 'NONE',  ( 0.000000000000000000, 0.000000000000000000, 5.200000000000024158 ) ) ;
#226 = CARTESIAN_POINT ( 'NONE',  ( -7.776507174585692163E-16, -6.349999999999999645, 4.000000000000000000 ) ) ;
#227 = ORIENTED_EDGE ( 'NONE', *, *, #7, .F. ) ;
#228 = LINE ( 'NONE', #236, #49 ) ;
#229 = DIRECTION ( 'NONE',  ( 0.000000000000000000, 1.000000000000000000, 0.000000000000000000 ) ) ;
#230 = ORIENTED_EDGE ( 'NONE', *, *, #158, .T. ) ;
#231 = CARTESIAN_POINT ( 'NONE',  ( 0.000000000000000000, 0.000000000000000000, 7.990927210561475924 ) ) ;
#232 =( GEOMETRIC_REPRESENTATION_CONTEXT ( 3 ) GLOBAL_UNCERTAINTY_ASSIGNED_CONTEXT ( ( #207 ) ) GLOBAL_UNIT_ASSIGNED_CONTEXT ( ( #51, #204, #267 ) ) REPRESENTATION_CONTEXT ( 'NONE', 'WORKASPACE' ) );
#233 = EDGE_LOOP ( 'NONE', ( #159, #177, #138, #22 ) ) ;
#234 = MECHANICAL_DESIGN_GEOMETRIC_PRESENTATION_REPRESENTATION (  '', ( #168 ), #50 ) ;
#235 = EDGE_CURVE ( 'NONE', #206, #4, #195, .T. ) ;
#236 = CARTESIAN_POINT ( 'NONE',  ( -6.165966899419030867, 0.000000000000000000, 5.384033100580984055 ) ) ;
#237 = DIRECTION ( 'NONE',  ( 1.000000000000000000, 0.000000000000000000, 0.000000000000000000 ) ) ;
#238 = DIRECTION ( 'NONE',  ( 1.000000000000000000, 0.000000000000000000, 0.000000000000000000 ) ) ;
#239 = AXIS2_PLACEMENT_3D ( 'NONE', #251, #120, #238 ) ;
#240 = CARTESIAN_POINT ( 'NONE',  ( 0.000000000000000000, 6.349999999999999645, 4.000000000000000000 ) ) ;
#241 = CARTESIAN_POINT ( 'NONE',  ( 0.000000000000000000, 0.000000000000000000, 5.384033100580984055 ) ) ;
#242 = FACE_OUTER_BOUND ( 'NONE', #221, .T. ) ;
#243 = VECTOR ( 'NONE', #125, 1000.000000000000000 ) ;
#244 = DIRECTION ( 'NONE',  ( -0.000000000000000000, -0.000000000000000000, -1.000000000000000000 ) ) ;
#245 = ORIENTED_EDGE ( 'NONE', *, *, #235, .T. ) ;
#246 = CIRCLE ( 'NONE', #100, 72.40000000000000568 ) ;
#247 = EDGE_CURVE ( 'NONE', #93, #269, #262, .T. ) ;
#248 = CIRCLE ( 'NONE', #215, 6.349999999999998757 ) ;
#249 = CIRCLE ( 'NONE', #109, 6.349999999999998757 ) ;
#250 = ADVANCED_FACE ( 'NONE', ( #172 ), #174, .F. ) ;
#251 = CARTESIAN_POINT ( 'NONE',  ( 0.000000000000000000, 0.000000000000000000, 5.384033100581012476 ) ) ;
#252 = DIRECTION ( 'NONE',  ( 0.7071067811865642261, 8.659560562355136236E-17, -0.7071067811865308084 ) ) ;
#253 = DIRECTION ( 'NONE',  ( 0.000000000000000000, 0.000000000000000000, -1.000000000000000000 ) ) ;
#254 = CARTESIAN_POINT ( 'NONE',  ( 0.000000000000000000, 6.165966899419214720, 5.384033100581012476 ) ) ;
#255 = FACE_OUTER_BOUND ( 'NONE', #233, .T. ) ;
#256 = CIRCLE ( 'NONE', #85, 6.349999999999998757 ) ;
#257 = CARTESIAN_POINT ( 'NONE',  ( 0.000000000000000000, 0.000000000000000000, 5.384033100580984055 ) ) ;
#258 = COLOUR_RGB ( '',1.000000000000000000, 1.000000000000000000, 1.000000000000000000 ) ;
#259 = CARTESIAN_POINT ( 'NONE',  ( 0.000000000000000000, 0.000000000000000000, 77.52099208968219557 ) ) ;
#260 = DIRECTION ( 'NONE',  ( 1.000000000000000000, 0.000000000000000000, 0.000000000000000000 ) ) ;
#261 = DIRECTION ( 'NONE',  ( 0.000000000000000000, 0.000000000000000000, -1.000000000000000000 ) ) ;
#262 = CIRCLE ( 'NONE', #135, 7.500000000000000888 ) ;
#263 =( NAMED_UNIT ( * ) SI_UNIT ( $, .STERADIAN. ) SOLID_ANGLE_UNIT ( ) );
#264 = ADVANCED_FACE ( 'NONE', ( #170 ), #11, .T. ) ;
#265 = CYLINDRICAL_SURFACE ( 'NONE', #210, 6.349999999999999645 ) ;
#266 =( NAMED_UNIT ( * ) SI_UNIT ( $, .STERADIAN. ) SOLID_ANGLE_UNIT ( ) );
#267 =( NAMED_UNIT ( * ) SI_UNIT ( $, .STERADIAN. ) SOLID_ANGLE_UNIT ( ) );
#268 = SHAPE_DEFINITION_REPRESENTATION ( #32, #105 ) ;
#269 = VERTEX_POINT ( 'NONE', #240 ) ;
#270 = APPLICATION_CONTEXT ( 'automotive_design' ) ;
#271 = ORIENTED_EDGE ( 'NONE', *, *, #3, .F. ) ;
#272 = EDGE_LOOP ( 'NONE', ( #130, #91, #134, #196, #227 ) ) ;
#273 = PRODUCT_DEFINITION ( 'Î´Öª', '', #58, #137 ) ;
#274 = DIRECTION ( 'NONE',  ( 0.000000000000000000, 0.000000000000000000, -1.000000000000000000 ) ) ;
#275 = CIRCLE ( 'NONE', #64, 6.165966899419028202 ) ;
#276 = CARTESIAN_POINT ( 'NONE',  ( 0.000000000000000000, 0.000000000000000000, 77.52099208968219557 ) ) ;
#277 = EDGE_LOOP ( 'NONE', ( #73, #142, #27, #116 ) ) ;
#278 = DIRECTION ( 'NONE',  ( 1.000000000000000000, 0.000000000000000000, 0.000000000000000000 ) ) ;
#279 = EDGE_CURVE ( 'NONE', #269, #180, #249, .T. ) ;
#280 = AXIS2_PLACEMENT_3D ( 'NONE', #219, #107, #148 ) ;
#281 = CARTESIAN_POINT ( 'NONE',  ( 6.349999999999999645, 7.776507174585692163E-16, 5.200000000000024158 ) ) ;
#282 = ADVANCED_FACE ( 'NONE', ( #242 ), #265, .T. ) ;
ENDSEC;
END-ISO-10303-21;
