ISO-10303-21;
HEADER;
FILE_DESCRIPTION (( 'STEP AP214' ),
    '1' );
FILE_NAME ('GLM5-025B-050-IR1.STEP',
    '2024-08-09T03:08:29',
    ( 'Windows User' ),
    ( 'P R C' ),
    'SwSTEP 2.0',
    'SolidWorks 2022',
    '' );
FILE_SCHEMA (( 'AUTOMOTIVE_DESIGN' ));
ENDSEC;

DATA;
#1 = EDGE_CURVE ( 'NONE', #40, #221, #150, .T. ) ;
#2 = EDGE_CURVE ( 'NONE', #160, #53, #41, .T. ) ;
#3 = CYLINDRICAL_SURFACE ( 'NONE', #21, 12.69999999999999929 ) ;
#4 = CARTESIAN_POINT ( 'NONE',  ( 0.000000000000000000, 0.000000000000000000, 20.00000000000000000 ) ) ;
#5 = EDGE_CURVE ( 'NONE', #53, #159, #66, .T. ) ;
#6 = AXIS2_PLACEMENT_3D ( 'NONE', #205, #181, #200 ) ;
#7 = EDGE_CURVE ( 'NONE', #78, #166, #104, .T. ) ;
#8 = EDGE_CURVE ( 'NONE', #134, #123, #18, .T. ) ;
#9 = PRESENTATION_STYLE_ASSIGNMENT (( #57 ) ) ;
#10 = EDGE_CURVE ( 'NONE', #159, #75, #162, .T. ) ;
#11 = CARTESIAN_POINT ( 'NONE',  ( 0.000000000000000000, 0.000000000000000000, 65.71917720888880865 ) ) ;
#12 = ORIENTED_EDGE ( 'NONE', *, *, #219, .T. ) ;
#13 = CARTESIAN_POINT ( 'NONE',  ( 12.69999999999999929, 1.555301434917138433E-15, 11.79999999999999716 ) ) ;
#14 = ORIENTED_EDGE ( 'NONE', *, *, #68, .T. ) ;
#15 = CARTESIAN_POINT ( 'NONE',  ( 0.000000000000000000, 0.000000000000000000, 10.00000000000000000 ) ) ;
#16 = ORIENTED_EDGE ( 'NONE', *, *, #25, .F. ) ;
#17 = DIRECTION ( 'NONE',  ( 1.000000000000000000, -0.000000000000000000, 0.000000000000000000 ) ) ;
#18 = CIRCLE ( 'NONE', #154, 15.49999999999999645 ) ;
#19 = ORIENTED_EDGE ( 'NONE', *, *, #2, .F. ) ;
#20 = DIRECTION ( 'NONE',  ( -0.000000000000000000, -0.000000000000000000, 1.000000000000000000 ) ) ;
#21 = AXIS2_PLACEMENT_3D ( 'NONE', #4, #130, #153 ) ;
#22 = EDGE_LOOP ( 'NONE', ( #125, #34, #14, #224, #274 ) ) ;
#23 = DIRECTION ( 'NONE',  ( -0.7071067811865513475, 0.000000000000000000, -0.7071067811865437980 ) ) ;
#24 = DIRECTION ( 'NONE',  ( -1.000000000000000000, 0.000000000000000000, 0.000000000000000000 ) ) ;
#25 = EDGE_CURVE ( 'NONE', #221, #160, #234, .T. ) ;
#26 = STYLED_ITEM ( 'NONE', ( #9 ), #89 ) ;
#27 = DIRECTION ( 'NONE',  ( -0.000000000000000000, -0.000000000000000000, 1.000000000000000000 ) ) ;
#28 = AXIS2_PLACEMENT_3D ( 'NONE', #85, #263, #235 ) ;
#29 = DIRECTION ( 'NONE',  ( -1.000000000000000000, 0.000000000000000000, 0.000000000000000000 ) ) ;
#30 = DIRECTION ( 'NONE',  ( 0.000000000000000000, 0.000000000000000000, -1.000000000000000000 ) ) ;
#31 = CIRCLE ( 'NONE', #161, 12.69999999999999751 ) ;
#32 = ADVANCED_FACE ( 'NONE', ( #122 ), #101, .T. ) ;
#33 =( NAMED_UNIT ( * ) PLANE_ANGLE_UNIT ( ) SI_UNIT ( $, .RADIAN. ) );
#34 = ORIENTED_EDGE ( 'NONE', *, *, #67, .T. ) ;
#35 = DIRECTION ( 'NONE',  ( 1.000000000000000000, 0.000000000000000000, 0.000000000000000000 ) ) ;
#36 = ORIENTED_EDGE ( 'NONE', *, *, #7, .F. ) ;
#37 = CARTESIAN_POINT ( 'NONE',  ( 0.000000000000000000, 0.000000000000000000, 10.00000000000000000 ) ) ;
#38 = ORIENTED_EDGE ( 'NONE', *, *, #236, .F. ) ;
#39 = DIRECTION ( 'NONE',  ( -0.000000000000000000, -0.000000000000000000, -1.000000000000000000 ) ) ;
#40 = VERTEX_POINT ( 'NONE', #137 ) ;
#41 = LINE ( 'NONE', #77, #278 ) ;
#42 = ORIENTED_EDGE ( 'NONE', *, *, #2, .T. ) ;
#43 = DIRECTION ( 'NONE',  ( 1.000000000000000000, 0.000000000000000000, 0.000000000000000000 ) ) ;
#44 = CARTESIAN_POINT ( 'NONE',  ( -12.53803359618341418, 0.000000000000000000, 11.96196640381658227 ) ) ;
#45 = AXIS2_PLACEMENT_3D ( 'NONE', #11, #272, #80 ) ;
#46 = PRODUCT_DEFINITION_FORMATION_WITH_SPECIFIED_SOURCE ( 'ÈÎºÎ', '', #191, .NOT_KNOWN. ) ;
#47 = FACE_OUTER_BOUND ( 'NONE', #50, .T. ) ;
#48 = EDGE_CURVE ( 'NONE', #159, #53, #51, .T. ) ;
#49 = ORIENTED_EDGE ( 'NONE', *, *, #5, .T. ) ;
#50 = EDGE_LOOP ( 'NONE', ( #36, #58, #204, #115 ) ) ;
#51 = CIRCLE ( 'NONE', #63, 12.69999999999999929 ) ;
#52 = CARTESIAN_POINT ( 'NONE',  ( 0.000000000000000000, 0.000000000000000000, 11.79999999999999716 ) ) ;
#53 = VERTEX_POINT ( 'NONE', #13 ) ;
#54 = DIRECTION ( 'NONE',  ( -0.000000000000000000, -0.000000000000000000, -1.000000000000000000 ) ) ;
#55 = ORIENTED_EDGE ( 'NONE', *, *, #198, .T. ) ;
#56 =( NAMED_UNIT ( * ) PLANE_ANGLE_UNIT ( ) SI_UNIT ( $, .RADIAN. ) );
#57 = SURFACE_STYLE_USAGE ( .BOTH. , #72 ) ;
#58 = ORIENTED_EDGE ( 'NONE', *, *, #236, .T. ) ;
#59 = DIRECTION ( 'NONE',  ( -0.000000000000000000, -0.000000000000000000, 1.000000000000000000 ) ) ;
#60 = SPHERICAL_SURFACE ( 'NONE', #242, 55.19999999999998863 ) ;
#61 = DIRECTION ( 'NONE',  ( -0.000000000000000000, -0.000000000000000000, 1.000000000000000000 ) ) ;
#62 = DIRECTION ( 'NONE',  ( -1.224646799147353207E-16, -1.000000000000000000, 0.000000000000000000 ) ) ;
#63 = AXIS2_PLACEMENT_3D ( 'NONE', #228, #222, #35 ) ;
#64 = AXIS2_PLACEMENT_3D ( 'NONE', #88, #30, #29 ) ;
#65 = FACE_OUTER_BOUND ( 'NONE', #250, .T. ) ;
#66 = CIRCLE ( 'NONE', #223, 12.69999999999999929 ) ;
#67 = EDGE_CURVE ( 'NONE', #53, #97, #96, .T. ) ;
#68 = EDGE_CURVE ( 'NONE', #97, #123, #174, .T. ) ;
#69 =( NAMED_UNIT ( * ) SI_UNIT ( $, .STERADIAN. ) SOLID_ANGLE_UNIT ( ) );
#70 = APPLICATION_CONTEXT ( 'automotive_design' ) ;
#71 = APPLICATION_PROTOCOL_DEFINITION ( 'draft international standard', 'automotive_design', 1998, #70 ) ;
#72 = SURFACE_SIDE_STYLE ('',( #253 ) ) ;
#73 = DIRECTION ( 'NONE',  ( 0.000000000000000000, 0.000000000000000000, 1.000000000000000000 ) ) ;
#74 = DIRECTION ( 'NONE',  ( 1.000000000000000000, 0.000000000000000000, 0.000000000000000000 ) ) ;
#75 = VERTEX_POINT ( 'NONE', #121 ) ;
#76 = SURFACE_STYLE_USAGE ( .BOTH. , #270 ) ;
#77 = CARTESIAN_POINT ( 'NONE',  ( 12.53803359618341418, 1.535466271116799418E-15, 11.96196640381658227 ) ) ;
#78 = VERTEX_POINT ( 'NONE', #82 ) ;
#79 = SURFACE_STYLE_FILL_AREA ( #180 ) ;
#80 = DIRECTION ( 'NONE',  ( 0.000000000000000000, 0.000000000000000000, -1.000000000000000000 ) ) ;
#81 = ORIENTED_EDGE ( 'NONE', *, *, #219, .F. ) ;
#82 = CARTESIAN_POINT ( 'NONE',  ( 0.000000000000000000, 3.380025165646693876E-15, 10.51917720888882712 ) ) ;
#83 = CARTESIAN_POINT ( 'NONE',  ( -1.555301434917138038E-15, -12.69999999999999574, 10.00000000000000000 ) ) ;
#84 = EDGE_LOOP ( 'NONE', ( #81, #202, #188, #184 ) ) ;
#85 = CARTESIAN_POINT ( 'NONE',  ( 0.000000000000000000, 0.000000000000000000, 18.88594395660922487 ) ) ;
#86 = DIRECTION ( 'NONE',  ( 1.000000000000000000, 0.000000000000000000, 0.000000000000000000 ) ) ;
#87 = CARTESIAN_POINT ( 'NONE',  ( 0.000000000000000000, 0.000000000000000000, 10.00000000000000000 ) ) ;
#88 = CARTESIAN_POINT ( 'NONE',  ( 0.000000000000000000, 0.000000000000000000, 11.96196640381658227 ) ) ;
#89 = MANIFOLD_SOLID_BREP ( 'µ¹½Ç1', #197 ) ;
#90 = AXIS2_PLACEMENT_3D ( 'NONE', #176, #239, #62 ) ;
#91 = PRESENTATION_LAYER_ASSIGNMENT (  '', '', ( #26 ) ) ;
#92 = SHAPE_DEFINITION_REPRESENTATION ( #146, #93 ) ;
#93 = ADVANCED_BREP_SHAPE_REPRESENTATION ( 'GLM5-025B-050-IR1', ( #89, #139 ), #267 ) ;
#94 = EDGE_LOOP ( 'NONE', ( #38, #206, #163, #226 ) ) ;
#95 = FILL_AREA_STYLE_COLOUR ( '', #106 ) ;
#96 = LINE ( 'NONE', #225, #136 ) ;
#97 = VERTEX_POINT ( 'NONE', #257 ) ;
#98 = CARTESIAN_POINT ( 'NONE',  ( 0.000000000000000000, 0.000000000000000000, 18.88594395660922487 ) ) ;
#99 = ORIENTED_EDGE ( 'NONE', *, *, #198, .F. ) ;
#100 = AXIS2_PLACEMENT_3D ( 'NONE', #178, #54, #135 ) ;
#101 = CYLINDRICAL_SURFACE ( 'NONE', #100, 12.69999999999999929 ) ;
#102 = FACE_OUTER_BOUND ( 'NONE', #179, .T. ) ;
#103 = CARTESIAN_POINT ( 'NONE',  ( 0.000000000000000000, 12.69999999999999574, 10.00000000000000000 ) ) ;
#104 = CIRCLE ( 'NONE', #45, 55.19999999999998863 ) ;
#105 = DIRECTION ( 'NONE',  ( 1.000000000000000000, 0.000000000000000000, 0.000000000000000000 ) ) ;
#106 = COLOUR_RGB ( '',1.000000000000000000, 1.000000000000000000, 1.000000000000000000 ) ;
#107 = FACE_OUTER_BOUND ( 'NONE', #84, .T. ) ;
#108 = DIRECTION ( 'NONE',  ( 1.000000000000000000, 0.000000000000000000, 0.000000000000000000 ) ) ;
#109 = EDGE_CURVE ( 'NONE', #123, #75, #31, .T. ) ;
#110 = ADVANCED_FACE ( 'NONE', ( #107 ), #147, .T. ) ;
#111 = CARTESIAN_POINT ( 'NONE',  ( 0.000000000000000000, 0.000000000000000000, 65.71917720888880865 ) ) ;
#112 = AXIS2_PLACEMENT_3D ( 'NONE', #87, #20, #86 ) ;
#113 = CIRCLE ( 'NONE', #28, 15.49999999999999645 ) ;
#114 = PRODUCT_CONTEXT ( 'NONE', #70, 'mechanical' ) ;
#115 = ORIENTED_EDGE ( 'NONE', *, *, #281, .T. ) ;
#116 =( NAMED_UNIT ( * ) SI_UNIT ( $, .STERADIAN. ) SOLID_ANGLE_UNIT ( ) );
#117 = EDGE_CURVE ( 'NONE', #40, #159, #124, .T. ) ;
#118 = ORIENTED_EDGE ( 'NONE', *, *, #109, .F. ) ;
#119 = AXIS2_PLACEMENT_3D ( 'NONE', #277, #59, #105 ) ;
#120 = PRESENTATION_STYLE_ASSIGNMENT (( #76 ) ) ;
#121 = CARTESIAN_POINT ( 'NONE',  ( -12.69999999999999751, 0.000000000000000000, 10.00000000000000000 ) ) ;
#122 = FACE_OUTER_BOUND ( 'NONE', #246, .T. ) ;
#123 = VERTEX_POINT ( 'NONE', #103 ) ;
#124 = LINE ( 'NONE', #44, #217 ) ;
#125 = ORIENTED_EDGE ( 'NONE', *, *, #48, .T. ) ;
#126 = CIRCLE ( 'NONE', #213, 12.53803359618341418 ) ;
#127 = CARTESIAN_POINT ( 'NONE',  ( 0.000000000000000000, 9.491012693391985815E-16, 3.385943956609228422 ) ) ;
#128 = CARTESIAN_POINT ( 'NONE',  ( -12.69999999999999929, 0.000000000000000000, 11.79999999999999716 ) ) ;
#129 =( GEOMETRIC_REPRESENTATION_CONTEXT ( 3 ) GLOBAL_UNCERTAINTY_ASSIGNED_CONTEXT ( ( #247 ) ) GLOBAL_UNIT_ASSIGNED_CONTEXT ( ( #244, #33, #232 ) ) REPRESENTATION_CONTEXT ( 'NONE', 'WORKASPACE' ) );
#130 = DIRECTION ( 'NONE',  ( -0.000000000000000000, -0.000000000000000000, -1.000000000000000000 ) ) ;
#131 = MECHANICAL_DESIGN_GEOMETRIC_PRESENTATION_REPRESENTATION (  '', ( #265 ), #164 ) ;
#132 = AXIS2_PLACEMENT_3D ( 'NONE', #171, #24, #190 ) ;
#133 = CIRCLE ( 'NONE', #237, 12.53803359618341418 ) ;
#134 = VERTEX_POINT ( 'NONE', #127 ) ;
#135 = DIRECTION ( 'NONE',  ( -1.000000000000000000, 0.000000000000000000, 0.000000000000000000 ) ) ;
#136 = VECTOR ( 'NONE', #39, 1000.000000000000000 ) ;
#137 = CARTESIAN_POINT ( 'NONE',  ( -12.53803359618341418, 0.000000000000000000, 11.96196640381658227 ) ) ;
#138 = VERTEX_POINT ( 'NONE', #83 ) ;
#139 = AXIS2_PLACEMENT_3D ( 'NONE', #266, #73, #155 ) ;
#140 = CIRCLE ( 'NONE', #119, 12.69999999999999751 ) ;
#141 = ORIENTED_EDGE ( 'NONE', *, *, #10, .T. ) ;
#142 = ORIENTED_EDGE ( 'NONE', *, *, #5, .F. ) ;
#143 = DIRECTION ( 'NONE',  ( 1.000000000000000000, 0.000000000000000000, 0.000000000000000000 ) ) ;
#144 = CONICAL_SURFACE ( 'NONE', #280, 12.53803359618341418, 0.7853981633974536081 ) ;
#145 = CARTESIAN_POINT ( 'NONE',  ( 0.000000000000000000, 0.000000000000000000, 18.88594395660922487 ) ) ;
#146 = PRODUCT_DEFINITION_SHAPE ( 'NONE', 'NONE',  #151 ) ;
#147 = SPHERICAL_SURFACE ( 'NONE', #185, 15.49999999999999645 ) ;
#148 = UNCERTAINTY_MEASURE_WITH_UNIT (LENGTH_MEASURE( 1.000000000000000082E-05 ), #173, 'distance_accuracy_value', 'NONE');
#149 = SPHERICAL_SURFACE ( 'NONE', #218, 55.19999999999998863 ) ;
#150 = CIRCLE ( 'NONE', #168, 12.53803359618341418 ) ;
#151 = PRODUCT_DEFINITION ( 'Î´Öª', '', #46, #189 ) ;
#152 = CONICAL_SURFACE ( 'NONE', #64, 12.53803359618341418, 0.7853981633974536081 ) ;
#153 = DIRECTION ( 'NONE',  ( -1.000000000000000000, 0.000000000000000000, 0.000000000000000000 ) ) ;
#154 = AXIS2_PLACEMENT_3D ( 'NONE', #98, #17, #158 ) ;
#155 = DIRECTION ( 'NONE',  ( 1.000000000000000000, 0.000000000000000000, 0.000000000000000000 ) ) ;
#156 = EDGE_CURVE ( 'NONE', #166, #40, #133, .T. ) ;
#157 = ADVANCED_FACE ( 'NONE', ( #102 ), #144, .T. ) ;
#158 = DIRECTION ( 'NONE',  ( 0.000000000000000000, 0.000000000000000000, -1.000000000000000000 ) ) ;
#159 = VERTEX_POINT ( 'NONE', #128 ) ;
#160 = VERTEX_POINT ( 'NONE', #210 ) ;
#161 = AXIS2_PLACEMENT_3D ( 'NONE', #15, #61, #143 ) ;
#162 = LINE ( 'NONE', #203, #264 ) ;
#163 = ORIENTED_EDGE ( 'NONE', *, *, #156, .T. ) ;
#164 =( GEOMETRIC_REPRESENTATION_CONTEXT ( 3 ) GLOBAL_UNCERTAINTY_ASSIGNED_CONTEXT ( ( #193 ) ) GLOBAL_UNIT_ASSIGNED_CONTEXT ( ( #227, #56, #69 ) ) REPRESENTATION_CONTEXT ( 'NONE', 'WORKASPACE' ) );
#165 = FILL_AREA_STYLE_COLOUR ( '', #243 ) ;
#166 = VERTEX_POINT ( 'NONE', #279 ) ;
#167 = DIRECTION ( 'NONE',  ( 0.000000000000000000, 1.000000000000000000, 0.000000000000000000 ) ) ;
#168 = AXIS2_PLACEMENT_3D ( 'NONE', #229, #183, #249 ) ;
#169 = CARTESIAN_POINT ( 'NONE',  ( 0.000000000000000000, 0.000000000000000000, 11.96196640381658227 ) ) ;
#170 = ADVANCED_FACE ( 'NONE', ( #194 ), #60, .F. ) ;
#171 = CARTESIAN_POINT ( 'NONE',  ( 0.000000000000000000, 0.000000000000000000, 18.88594395660922487 ) ) ;
#172 = CARTESIAN_POINT ( 'NONE',  ( 0.000000000000000000, 0.000000000000000000, 65.71917720888880865 ) ) ;
#173 =( LENGTH_UNIT ( ) NAMED_UNIT ( * ) SI_UNIT ( .MILLI., .METRE. ) );
#174 = CIRCLE ( 'NONE', #260, 12.69999999999999751 ) ;
#175 = DIRECTION ( 'NONE',  ( -1.000000000000000000, 0.000000000000000000, 0.000000000000000000 ) ) ;
#176 = CARTESIAN_POINT ( 'NONE',  ( 0.000000000000000000, 0.000000000000000000, 65.71917720888880865 ) ) ;
#177 = CIRCLE ( 'NONE', #112, 12.69999999999999751 ) ;
#178 = CARTESIAN_POINT ( 'NONE',  ( 0.000000000000000000, 0.000000000000000000, 20.00000000000000000 ) ) ;
#179 = EDGE_LOOP ( 'NONE', ( #182, #42, #208, #187, #269 ) ) ;
#180 = FILL_AREA_STYLE ('',( #95 ) ) ;
#181 = DIRECTION ( 'NONE',  ( -0.000000000000000000, -0.000000000000000000, 1.000000000000000000 ) ) ;
#182 = ORIENTED_EDGE ( 'NONE', *, *, #281, .F. ) ;
#183 = DIRECTION ( 'NONE',  ( -0.000000000000000000, -0.000000000000000000, 1.000000000000000000 ) ) ;
#184 = ORIENTED_EDGE ( 'NONE', *, *, #212, .F. ) ;
#185 = AXIS2_PLACEMENT_3D ( 'NONE', #145, #192, #215 ) ;
#186 = DIRECTION ( 'NONE',  ( 1.000000000000000000, 0.000000000000000000, 0.000000000000000000 ) ) ;
#187 = ORIENTED_EDGE ( 'NONE', *, *, #117, .F. ) ;
#188 = ORIENTED_EDGE ( 'NONE', *, *, #68, .F. ) ;
#189 = PRODUCT_DEFINITION_CONTEXT ( 'detailed design', #276, 'design' ) ;
#190 = DIRECTION ( 'NONE',  ( 0.000000000000000000, 1.000000000000000000, 0.000000000000000000 ) ) ;
#191 = PRODUCT ( 'GLM5-025B-050-IR1', 'GLM5-025B-050-IR1', '', ( #114 ) ) ;
#192 = DIRECTION ( 'NONE',  ( -1.000000000000000000, 0.000000000000000000, 0.000000000000000000 ) ) ;
#193 = UNCERTAINTY_MEASURE_WITH_UNIT (LENGTH_MEASURE( 1.000000000000000082E-05 ), #227, 'distance_accuracy_value', 'NONE');
#194 = FACE_OUTER_BOUND ( 'NONE', #94, .T. ) ;
#195 = FACE_OUTER_BOUND ( 'NONE', #22, .T. ) ;
#196 = ADVANCED_FACE ( 'NONE', ( #275 ), #255, .T. ) ;
#197 = CLOSED_SHELL ( 'NONE', ( #157, #248, #196, #261, #32, #110, #170, #230 ) ) ;
#198 = EDGE_CURVE ( 'NONE', #75, #138, #177, .T. ) ;
#199 = APPLICATION_PROTOCOL_DEFINITION ( 'draft international standard', 'automotive_design', 1998, #276 ) ;
#200 = DIRECTION ( 'NONE',  ( 1.000000000000000000, 0.000000000000000000, 0.000000000000000000 ) ) ;
#201 = DIRECTION ( 'NONE',  ( 0.7071067811865513475, 8.659560562354980929E-17, -0.7071067811865437980 ) ) ;
#202 = ORIENTED_EDGE ( 'NONE', *, *, #8, .T. ) ;
#203 = CARTESIAN_POINT ( 'NONE',  ( -12.69999999999999929, 0.000000000000000000, 20.00000000000000000 ) ) ;
#204 = ORIENTED_EDGE ( 'NONE', *, *, #25, .T. ) ;
#205 = CARTESIAN_POINT ( 'NONE',  ( 0.000000000000000000, 0.000000000000000000, 11.96196640381658227 ) ) ;
#206 = ORIENTED_EDGE ( 'NONE', *, *, #7, .T. ) ;
#207 = DIRECTION ( 'NONE',  ( -0.000000000000000000, -0.000000000000000000, 1.000000000000000000 ) ) ;
#208 = ORIENTED_EDGE ( 'NONE', *, *, #48, .F. ) ;
#209 = MECHANICAL_DESIGN_GEOMETRIC_PRESENTATION_REPRESENTATION (  '', ( #26 ), #129 ) ;
#210 = CARTESIAN_POINT ( 'NONE',  ( 12.53803359618341418, 1.545383853016968925E-15, 11.96196640381658227 ) ) ;
#211 = EDGE_LOOP ( 'NONE', ( #231, #12, #99, #118 ) ) ;
#212 = EDGE_CURVE ( 'NONE', #138, #97, #140, .T. ) ;
#213 = AXIS2_PLACEMENT_3D ( 'NONE', #216, #241, #108 ) ;
#214 = CARTESIAN_POINT ( 'NONE',  ( 0.000000000000000000, 0.000000000000000000, 11.96196640381658227 ) ) ;
#215 = DIRECTION ( 'NONE',  ( 0.000000000000000000, 1.000000000000000000, 0.000000000000000000 ) ) ;
#216 = CARTESIAN_POINT ( 'NONE',  ( 0.000000000000000000, 0.000000000000000000, 11.96196640381658227 ) ) ;
#217 = VECTOR ( 'NONE', #23, 1000.000000000000000 ) ;
#218 = AXIS2_PLACEMENT_3D ( 'NONE', #111, #175, #262 ) ;
#219 = EDGE_CURVE ( 'NONE', #134, #138, #113, .T. ) ;
#220 = FILL_AREA_STYLE ('',( #165 ) ) ;
#221 = VERTEX_POINT ( 'NONE', #258 ) ;
#222 = DIRECTION ( 'NONE',  ( 0.000000000000000000, 0.000000000000000000, -1.000000000000000000 ) ) ;
#223 = AXIS2_PLACEMENT_3D ( 'NONE', #52, #268, #74 ) ;
#224 = ORIENTED_EDGE ( 'NONE', *, *, #109, .T. ) ;
#225 = CARTESIAN_POINT ( 'NONE',  ( 12.69999999999999929, 1.555301434917138433E-15, 20.00000000000000000 ) ) ;
#226 = ORIENTED_EDGE ( 'NONE', *, *, #1, .T. ) ;
#227 =( LENGTH_UNIT ( ) NAMED_UNIT ( * ) SI_UNIT ( .MILLI., .METRE. ) );
#228 = CARTESIAN_POINT ( 'NONE',  ( 0.000000000000000000, 0.000000000000000000, 11.79999999999999716 ) ) ;
#229 = CARTESIAN_POINT ( 'NONE',  ( 0.000000000000000000, 0.000000000000000000, 11.96196640381658227 ) ) ;
#230 = ADVANCED_FACE ( 'NONE', ( #65 ), #152, .T. ) ;
#231 = ORIENTED_EDGE ( 'NONE', *, *, #8, .F. ) ;
#232 =( NAMED_UNIT ( * ) SI_UNIT ( $, .STERADIAN. ) SOLID_ANGLE_UNIT ( ) );
#233 = CIRCLE ( 'NONE', #90, 55.19999999999998863 ) ;
#234 = CIRCLE ( 'NONE', #6, 12.53803359618341418 ) ;
#235 = DIRECTION ( 'NONE',  ( -1.224646799147353207E-16, -1.000000000000000000, 0.000000000000000000 ) ) ;
#236 = EDGE_CURVE ( 'NONE', #78, #221, #233, .T. ) ;
#237 = AXIS2_PLACEMENT_3D ( 'NONE', #214, #27, #43 ) ;
#238 =( NAMED_UNIT ( * ) PLANE_ANGLE_UNIT ( ) SI_UNIT ( $, .RADIAN. ) );
#239 = DIRECTION ( 'NONE',  ( -1.000000000000000000, 1.224646799147353207E-16, 0.000000000000000000 ) ) ;
#240 = PRODUCT_RELATED_PRODUCT_CATEGORY ( 'part', '', ( #191 ) ) ;
#241 = DIRECTION ( 'NONE',  ( -0.000000000000000000, -0.000000000000000000, 1.000000000000000000 ) ) ;
#242 = AXIS2_PLACEMENT_3D ( 'NONE', #172, #259, #167 ) ;
#243 = COLOUR_RGB ( '',1.000000000000000000, 1.000000000000000000, 1.000000000000000000 ) ;
#244 =( LENGTH_UNIT ( ) NAMED_UNIT ( * ) SI_UNIT ( .MILLI., .METRE. ) );
#245 = DIRECTION ( 'NONE',  ( -0.000000000000000000, -0.000000000000000000, -1.000000000000000000 ) ) ;
#246 = EDGE_LOOP ( 'NONE', ( #254, #49, #141, #55, #271 ) ) ;
#247 = UNCERTAINTY_MEASURE_WITH_UNIT (LENGTH_MEASURE( 1.000000000000000082E-05 ), #244, 'distance_accuracy_value', 'NONE');
#248 = ADVANCED_FACE ( 'NONE', ( #47 ), #149, .F. ) ;
#249 = DIRECTION ( 'NONE',  ( 1.000000000000000000, 0.000000000000000000, 0.000000000000000000 ) ) ;
#250 = EDGE_LOOP ( 'NONE', ( #19, #16, #252, #273, #142 ) ) ;
#251 = PRESENTATION_LAYER_ASSIGNMENT (  '', '', ( #265 ) ) ;
#252 = ORIENTED_EDGE ( 'NONE', *, *, #1, .F. ) ;
#253 = SURFACE_STYLE_FILL_AREA ( #220 ) ;
#254 = ORIENTED_EDGE ( 'NONE', *, *, #67, .F. ) ;
#255 = SPHERICAL_SURFACE ( 'NONE', #132, 15.49999999999999645 ) ;
#256 = DIRECTION ( 'NONE',  ( -1.000000000000000000, 0.000000000000000000, 0.000000000000000000 ) ) ;
#257 = CARTESIAN_POINT ( 'NONE',  ( 12.69999999999999751, 1.555301434917138235E-15, 10.00000000000000000 ) ) ;
#258 = CARTESIAN_POINT ( 'NONE',  ( -1.535466271116798629E-15, -12.53803359618340529, 11.96196640381657872 ) ) ;
#259 = DIRECTION ( 'NONE',  ( -1.000000000000000000, 0.000000000000000000, 0.000000000000000000 ) ) ;
#260 = AXIS2_PLACEMENT_3D ( 'NONE', #37, #207, #186 ) ;
#261 = ADVANCED_FACE ( 'NONE', ( #195 ), #3, .T. ) ;
#262 = DIRECTION ( 'NONE',  ( 0.000000000000000000, 1.000000000000000000, 0.000000000000000000 ) ) ;
#263 = DIRECTION ( 'NONE',  ( -1.000000000000000000, 1.224646799147353207E-16, 0.000000000000000000 ) ) ;
#264 = VECTOR ( 'NONE', #245, 1000.000000000000000 ) ;
#265 = STYLED_ITEM ( 'NONE', ( #120 ), #93 ) ;
#266 = CARTESIAN_POINT ( 'NONE',  ( 0.000000000000000000, 0.000000000000000000, 0.000000000000000000 ) ) ;
#267 =( GEOMETRIC_REPRESENTATION_CONTEXT ( 3 ) GLOBAL_UNCERTAINTY_ASSIGNED_CONTEXT ( ( #148 ) ) GLOBAL_UNIT_ASSIGNED_CONTEXT ( ( #173, #238, #116 ) ) REPRESENTATION_CONTEXT ( 'NONE', 'WORKASPACE' ) );
#268 = DIRECTION ( 'NONE',  ( 0.000000000000000000, 0.000000000000000000, -1.000000000000000000 ) ) ;
#269 = ORIENTED_EDGE ( 'NONE', *, *, #156, .F. ) ;
#270 = SURFACE_SIDE_STYLE ('',( #79 ) ) ;
#271 = ORIENTED_EDGE ( 'NONE', *, *, #212, .T. ) ;
#272 = DIRECTION ( 'NONE',  ( 1.000000000000000000, 0.000000000000000000, 0.000000000000000000 ) ) ;
#273 = ORIENTED_EDGE ( 'NONE', *, *, #117, .T. ) ;
#274 = ORIENTED_EDGE ( 'NONE', *, *, #10, .F. ) ;
#275 = FACE_OUTER_BOUND ( 'NONE', #211, .T. ) ;
#276 = APPLICATION_CONTEXT ( 'automotive_design' ) ;
#277 = CARTESIAN_POINT ( 'NONE',  ( 0.000000000000000000, 0.000000000000000000, 10.00000000000000000 ) ) ;
#278 = VECTOR ( 'NONE', #201, 1000.000000000000000 ) ;
#279 = CARTESIAN_POINT ( 'NONE',  ( 0.000000000000000000, 12.53803359618340529, 11.96196640381657872 ) ) ;
#280 = AXIS2_PLACEMENT_3D ( 'NONE', #169, #282, #256 ) ;
#281 = EDGE_CURVE ( 'NONE', #160, #166, #126, .T. ) ;
#282 = DIRECTION ( 'NONE',  ( 0.000000000000000000, 0.000000000000000000, -1.000000000000000000 ) ) ;
ENDSEC;
END-ISO-10303-21;
