ISO-10303-21;
HEADER;
FILE_DESCRIPTION (( 'STEP AP214' ),
    '1' );
FILE_NAME ('GLM5-025B-500-IR1.STEP',
    '2024-08-09T03:25:06',
    ( 'Windows User' ),
    ( 'P R C' ),
    'SwSTEP 2.0',
    'SolidWorks 2022',
    '' );
FILE_SCHEMA (( 'AUTOMOTIVE_DESIGN' ));
ENDSEC;

DATA;
#1 = DIRECTION ( 'NONE',  ( 0.000000000000000000, 1.000000000000000000, 0.000000000000000000 ) ) ;
#2 = AXIS2_PLACEMENT_3D ( 'NONE', #53, #262, #28 ) ;
#3 = CARTESIAN_POINT ( 'NONE',  ( 0.000000000000000000, 12.50117762165413815, 9.979855148039979085 ) ) ;
#4 = STYLED_ITEM ( 'NONE', ( #116 ), #82 ) ;
#5 = APPLICATION_PROTOCOL_DEFINITION ( 'draft international standard', 'automotive_design', 1998, #48 ) ;
#6 = EDGE_CURVE ( 'NONE', #294, #163, #55, .T. ) ;
#7 = EDGE_CURVE ( 'NONE', #294, #92, #72, .T. ) ;
#8 = FACE_OUTER_BOUND ( 'NONE', #114, .T. ) ;
#9 = DIRECTION ( 'NONE',  ( -1.000000000000000000, 0.000000000000000000, 0.000000000000000000 ) ) ;
#10 = DIRECTION ( 'NONE',  ( 0.000000000000000000, 0.000000000000000000, -1.000000000000000000 ) ) ;
#11 = CIRCLE ( 'NONE', #314, 12.50117762165416302 ) ;
#12 = DIRECTION ( 'NONE',  ( 0.000000000000000000, 0.000000000000000000, -1.000000000000000000 ) ) ;
#13 = FILL_AREA_STYLE ('',( #187 ) ) ;
#14 = VERTEX_POINT ( 'NONE', #179 ) ;
#15 = ORIENTED_EDGE ( 'NONE', *, *, #244, .F. ) ;
#16 = CIRCLE ( 'NONE', #113, 317.8000000000000114 ) ;
#17 = EDGE_CURVE ( 'NONE', #297, #228, #204, .T. ) ;
#18 = CARTESIAN_POINT ( 'NONE',  ( -12.50117762165416302, 1.543127075455133718E-15, 9.979855148039979085 ) ) ;
#19 = ORIENTED_EDGE ( 'NONE', *, *, #241, .T. ) ;
#20 = ORIENTED_EDGE ( 'NONE', *, *, #281, .F. ) ;
#21 = PRODUCT_DEFINITION ( 'Î´Öª', '', #122, #295 ) ;
#22 = CARTESIAN_POINT ( 'NONE',  ( 0.000000000000000000, 0.000000000000000000, 331.1461383799211262 ) ) ;
#23 = CARTESIAN_POINT ( 'NONE',  ( -1.531743531399027729E-15, -12.50763511949312701, 13.59236488050630243 ) ) ;
#24 = DIRECTION ( 'NONE',  ( -0.000000000000000000, -0.000000000000000000, 1.000000000000000000 ) ) ;
#25 = SPHERICAL_SURFACE ( 'NONE', #326, 317.8000000000000114 ) ;
#26 = CARTESIAN_POINT ( 'NONE',  ( 0.000000000000000000, 0.000000000000000000, 134.3531664253065969 ) ) ;
#27 = APPLICATION_CONTEXT ( 'automotive_design' ) ;
#28 = DIRECTION ( 'NONE',  ( -1.000000000000000000, 0.000000000000000000, 0.000000000000000000 ) ) ;
#29 = ADVANCED_FACE ( 'NONE', ( #305 ), #127, .F. ) ;
#30 = DIRECTION ( 'NONE',  ( 0.6316056889623122839, 0.000000000000000000, 0.7752897868993521291 ) ) ;
#31 = DIRECTION ( 'NONE',  ( -0.000000000000000000, -0.000000000000000000, -1.000000000000000000 ) ) ;
#32 = CARTESIAN_POINT ( 'NONE',  ( 0.000000000000000000, 0.000000000000000000, 134.3531664253065969 ) ) ;
#33 = FACE_OUTER_BOUND ( 'NONE', #147, .T. ) ;
#34 = PRESENTATION_STYLE_ASSIGNMENT (( #167 ) ) ;
#35 = CIRCLE ( 'NONE', #308, 12.50763511949364570 ) ;
#36 = FILL_AREA_STYLE_COLOUR ( '', #108 ) ;
#37 = VERTEX_POINT ( 'NONE', #330 ) ;
#38 = ORIENTED_EDGE ( 'NONE', *, *, #170, .T. ) ;
#39 = ORIENTED_EDGE ( 'NONE', *, *, #7, .F. ) ;
#40 = AXIS2_PLACEMENT_3D ( 'NONE', #26, #176, #177 ) ;
#41 = SURFACE_SIDE_STYLE ('',( #196 ) ) ;
#42 = ORIENTED_EDGE ( 'NONE', *, *, #173, .F. ) ;
#43 = ORIENTED_EDGE ( 'NONE', *, *, #85, .T. ) ;
#44 = AXIS2_PLACEMENT_3D ( 'NONE', #32, #135, #239 ) ;
#45 = AXIS2_PLACEMENT_3D ( 'NONE', #251, #89, #206 ) ;
#46 = CARTESIAN_POINT ( 'NONE',  ( 0.000000000000000000, 0.000000000000000000, 10.22390766693323449 ) ) ;
#47 = CARTESIAN_POINT ( 'NONE',  ( 12.50117762165416302, 0.000000000000000000, 9.979855148039979085 ) ) ;
#48 = APPLICATION_CONTEXT ( 'automotive_design' ) ;
#49 = SPHERICAL_SURFACE ( 'NONE', #40, 125.0000000000000000 ) ;
#50 = AXIS2_PLACEMENT_3D ( 'NONE', #218, #12, #273 ) ;
#51 = DIRECTION ( 'NONE',  ( 0.000000000000000000, 0.000000000000000000, -1.000000000000000000 ) ) ;
#52 = DIRECTION ( 'NONE',  ( -0.000000000000000000, -0.000000000000000000, 1.000000000000000000 ) ) ;
#53 = CARTESIAN_POINT ( 'NONE',  ( 0.000000000000000000, 0.000000000000000000, 13.59236488050635749 ) ) ;
#54 = DIRECTION ( 'NONE',  ( -0.000000000000000000, -0.000000000000000000, 1.000000000000000000 ) ) ;
#55 = CIRCLE ( 'NONE', #169, 12.50117762165416302 ) ;
#56 = DIRECTION ( 'NONE',  ( -1.000000000000000000, 0.000000000000000000, 0.000000000000000000 ) ) ;
#57 = DIRECTION ( 'NONE',  ( -1.000000000000000000, 0.000000000000000000, 0.000000000000000000 ) ) ;
#58 =( GEOMETRIC_REPRESENTATION_CONTEXT ( 3 ) GLOBAL_UNCERTAINTY_ASSIGNED_CONTEXT ( ( #263 ) ) GLOBAL_UNIT_ASSIGNED_CONTEXT ( ( #193, #118, #161 ) ) REPRESENTATION_CONTEXT ( 'NONE', 'WORKASPACE' ) );
#59 = VERTEX_POINT ( 'NONE', #327 ) ;
#60 =( NAMED_UNIT ( * ) SI_UNIT ( $, .STERADIAN. ) SOLID_ANGLE_UNIT ( ) );
#61 = VERTEX_POINT ( 'NONE', #47 ) ;
#62 = VERTEX_POINT ( 'NONE', #200 ) ;
#63 = ORIENTED_EDGE ( 'NONE', *, *, #235, .F. ) ;
#64 = VECTOR ( 'NONE', #103, 1000.000000000000114 ) ;
#65 = VERTEX_POINT ( 'NONE', #23 ) ;
#66 = VERTEX_POINT ( 'NONE', #123 ) ;
#67 = DIRECTION ( 'NONE',  ( -1.224646799147353207E-16, -1.000000000000000000, 0.000000000000000000 ) ) ;
#68 = CARTESIAN_POINT ( 'NONE',  ( 0.000000000000000000, 0.000000000000000000, 9.979855148039979085 ) ) ;
#69 = CARTESIAN_POINT ( 'NONE',  ( 0.000000000000000000, 0.000000000000000000, 331.1461383799211262 ) ) ;
#70 = ADVANCED_FACE ( 'NONE', ( #152 ), #49, .T. ) ;
#71 = EDGE_CURVE ( 'NONE', #61, #228, #166, .T. ) ;
#72 = LINE ( 'NONE', #282, #304 ) ;
#73 = CONICAL_SURFACE ( 'NONE', #50, 12.50763511949362794, 0.7853981633973986520 ) ;
#74 = DIRECTION ( 'NONE',  ( 1.000000000000000000, 0.000000000000000000, 0.000000000000000000 ) ) ;
#75 = CARTESIAN_POINT ( 'NONE',  ( -1.530952715993126243E-15, -12.50117762165413815, 9.979855148039979085 ) ) ;
#76 = CARTESIAN_POINT ( 'NONE',  ( 0.000000000000000000, 0.000000000000000000, 20.00000000000000000 ) ) ;
#77 = DIRECTION ( 'NONE',  ( 1.000000000000000000, 0.000000000000000000, 0.000000000000000000 ) ) ;
#78 = CLOSED_SHELL ( 'NONE', ( #222, #302, #115, #70, #81, #151, #245, #29, #137, #270 ) ) ;
#79 = CYLINDRICAL_SURFACE ( 'NONE', #93, 12.69999999999999929 ) ;
#80 = ORIENTED_EDGE ( 'NONE', *, *, #244, .T. ) ;
#81 = ADVANCED_FACE ( 'NONE', ( #233 ), #154, .T. ) ;
#82 = ADVANCED_BREP_SHAPE_REPRESENTATION ( 'GLM5-025B-500-IR1', ( #315, #45 ), #58 ) ;
#83 = SURFACE_STYLE_USAGE ( .BOTH. , #293 ) ;
#84 = AXIS2_PLACEMENT_3D ( 'NONE', #98, #231, #202 ) ;
#85 = EDGE_CURVE ( 'NONE', #37, #143, #16, .T. ) ;
#86 = ORIENTED_EDGE ( 'NONE', *, *, #17, .F. ) ;
#87 = ORIENTED_EDGE ( 'NONE', *, *, #111, .F. ) ;
#88 = EDGE_CURVE ( 'NONE', #92, #66, #221, .T. ) ;
#89 = DIRECTION ( 'NONE',  ( 0.000000000000000000, 0.000000000000000000, 1.000000000000000000 ) ) ;
#90 = ORIENTED_EDGE ( 'NONE', *, *, #197, .F. ) ;
#91 = CARTESIAN_POINT ( 'NONE',  ( 0.000000000000000000, 7.654042494670957804E-15, 9.353166425306591591 ) ) ;
#92 = VERTEX_POINT ( 'NONE', #276 ) ;
#93 = AXIS2_PLACEMENT_3D ( 'NONE', #76, #286, #57 ) ;
#94 = CIRCLE ( 'NONE', #180, 317.8000000000000114 ) ;
#95 = EDGE_LOOP ( 'NONE', ( #219, #191, #275, #225 ) ) ;
#96 = CARTESIAN_POINT ( 'NONE',  ( -12.69999999999999929, 0.000000000000000000, 20.00000000000000000 ) ) ;
#97 = EDGE_CURVE ( 'NONE', #110, #92, #328, .T. ) ;
#98 = CARTESIAN_POINT ( 'NONE',  ( 0.000000000000000000, 0.000000000000000000, 13.59236488050630243 ) ) ;
#99 = CIRCLE ( 'NONE', #261, 12.69999999999999929 ) ;
#100 = DIRECTION ( 'NONE',  ( -1.000000000000000000, 0.000000000000000000, 0.000000000000000000 ) ) ;
#101 = EDGE_CURVE ( 'NONE', #59, #65, #160, .T. ) ;
#102 = CARTESIAN_POINT ( 'NONE',  ( 0.000000000000000000, 0.000000000000000000, 9.979855148039979085 ) ) ;
#103 = DIRECTION ( 'NONE',  ( 0.7071067811865124897, 8.659560562354503915E-17, -0.7071067811865825448 ) ) ;
#104 = AXIS2_PLACEMENT_3D ( 'NONE', #234, #184, #240 ) ;
#105 = MECHANICAL_DESIGN_GEOMETRIC_PRESENTATION_REPRESENTATION (  '', ( #4 ), #292 ) ;
#106 = DIRECTION ( 'NONE',  ( 1.000000000000000000, 0.000000000000000000, 0.000000000000000000 ) ) ;
#107 = DIRECTION ( 'NONE',  ( 0.000000000000000000, 1.000000000000000000, 0.000000000000000000 ) ) ;
#108 = COLOUR_RGB ( '',1.000000000000000000, 1.000000000000000000, 1.000000000000000000 ) ;
#109 = DIRECTION ( 'NONE',  ( -0.000000000000000000, -0.000000000000000000, 1.000000000000000000 ) ) ;
#110 = VERTEX_POINT ( 'NONE', #230 ) ;
#111 = EDGE_CURVE ( 'NONE', #62, #143, #256, .T. ) ;
#112 = ORIENTED_EDGE ( 'NONE', *, *, #197, .T. ) ;
#113 = AXIS2_PLACEMENT_3D ( 'NONE', #22, #301, #279 ) ;
#114 = EDGE_LOOP ( 'NONE', ( #86, #19, #112, #317 ) ) ;
#115 = ADVANCED_FACE ( 'NONE', ( #280 ), #25, .F. ) ;
#116 = PRESENTATION_STYLE_ASSIGNMENT (( #83 ) ) ;
#117 = ORIENTED_EDGE ( 'NONE', *, *, #146, .T. ) ;
#118 =( NAMED_UNIT ( * ) PLANE_ANGLE_UNIT ( ) SI_UNIT ( $, .RADIAN. ) );
#119 = ORIENTED_EDGE ( 'NONE', *, *, #241, .F. ) ;
#120 = EDGE_LOOP ( 'NONE', ( #220, #141, #321, #274 ) ) ;
#121 = VECTOR ( 'NONE', #31, 1000.000000000000000 ) ;
#122 = PRODUCT_DEFINITION_FORMATION_WITH_SPECIFIED_SOURCE ( 'ÈÎºÎ', '', #178, .NOT_KNOWN. ) ;
#123 = CARTESIAN_POINT ( 'NONE',  ( 12.69999999999999929, 1.555301434917138433E-15, 10.22390766693323449 ) ) ;
#124 = EDGE_CURVE ( 'NONE', #14, #66, #260, .T. ) ;
#125 = EDGE_CURVE ( 'NONE', #14, #110, #278, .T. ) ;
#126 = DIRECTION ( 'NONE',  ( 1.000000000000000000, 0.000000000000000000, 0.000000000000000000 ) ) ;
#127 = SPHERICAL_SURFACE ( 'NONE', #129, 317.8000000000000114 ) ;
#128 = AXIS2_PLACEMENT_3D ( 'NONE', #264, #54, #183 ) ;
#129 = AXIS2_PLACEMENT_3D ( 'NONE', #69, #283, #258 ) ;
#130 = DIRECTION ( 'NONE',  ( 0.000000000000000000, 0.000000000000000000, -1.000000000000000000 ) ) ;
#131 = LINE ( 'NONE', #236, #64 ) ;
#132 = CARTESIAN_POINT ( 'NONE',  ( 0.000000000000000000, 0.000000000000000000, 134.3531664253065969 ) ) ;
#133 = CONICAL_SURFACE ( 'NONE', #320, 12.69999999999999929, 0.6836225510729435628 ) ;
#134 = CARTESIAN_POINT ( 'NONE',  ( 0.000000000000000000, 0.000000000000000000, 9.979855148039979085 ) ) ;
#135 = DIRECTION ( 'NONE',  ( 1.000000000000000000, -0.000000000000000000, 0.000000000000000000 ) ) ;
#136 = CARTESIAN_POINT ( 'NONE',  ( 0.000000000000000000, 0.000000000000000000, 10.22390766693323449 ) ) ;
#137 = ADVANCED_FACE ( 'NONE', ( #290 ), #195, .T. ) ;
#138 = PRESENTATION_LAYER_ASSIGNMENT (  '', '', ( #4 ) ) ;
#139 = SURFACE_STYLE_FILL_AREA ( #323 ) ;
#140 = ORIENTED_EDGE ( 'NONE', *, *, #253, .T. ) ;
#141 = ORIENTED_EDGE ( 'NONE', *, *, #125, .T. ) ;
#142 = AXIS2_PLACEMENT_3D ( 'NONE', #132, #9, #107 ) ;
#143 = VERTEX_POINT ( 'NONE', #267 ) ;
#144 =( LENGTH_UNIT ( ) NAMED_UNIT ( * ) SI_UNIT ( .MILLI., .METRE. ) );
#145 = ORIENTED_EDGE ( 'NONE', *, *, #253, .F. ) ;
#146 = EDGE_CURVE ( 'NONE', #65, #62, #232, .T. ) ;
#147 = EDGE_LOOP ( 'NONE', ( #248, #194, #319, #291, #90 ) ) ;
#148 = EDGE_CURVE ( 'NONE', #62, #14, #131, .T. ) ;
#149 = MECHANICAL_DESIGN_GEOMETRIC_PRESENTATION_REPRESENTATION (  '', ( #257 ), #227 ) ;
#150 = CARTESIAN_POINT ( 'NONE',  ( 0.000000000000000000, 0.000000000000000000, 134.3531664253065969 ) ) ;
#151 = ADVANCED_FACE ( 'NONE', ( #186 ), #79, .T. ) ;
#152 = FACE_OUTER_BOUND ( 'NONE', #325, .T. ) ;
#153 = AXIS2_PLACEMENT_3D ( 'NONE', #259, #24, #126 ) ;
#154 = CYLINDRICAL_SURFACE ( 'NONE', #313, 12.69999999999999929 ) ;
#155 = SPHERICAL_SURFACE ( 'NONE', #142, 125.0000000000000000 ) ;
#156 = DIRECTION ( 'NONE',  ( -0.000000000000000000, -0.000000000000000000, 1.000000000000000000 ) ) ;
#157 = CARTESIAN_POINT ( 'NONE',  ( 0.000000000000000000, 0.000000000000000000, 13.39999999999996660 ) ) ;
#158 = DIRECTION ( 'NONE',  ( 1.000000000000000000, 0.000000000000000000, 0.000000000000000000 ) ) ;
#159 =( NAMED_UNIT ( * ) PLANE_ANGLE_UNIT ( ) SI_UNIT ( $, .RADIAN. ) );
#160 = CIRCLE ( 'NONE', #153, 12.50763511949364570 ) ;
#161 =( NAMED_UNIT ( * ) SI_UNIT ( $, .STERADIAN. ) SOLID_ANGLE_UNIT ( ) );
#162 = ORIENTED_EDGE ( 'NONE', *, *, #101, .T. ) ;
#163 = VERTEX_POINT ( 'NONE', #3 ) ;
#164 =( NAMED_UNIT ( * ) SI_UNIT ( $, .STERADIAN. ) SOLID_ANGLE_UNIT ( ) );
#165 = ORIENTED_EDGE ( 'NONE', *, *, #85, .F. ) ;
#166 = CIRCLE ( 'NONE', #268, 12.50117762165416302 ) ;
#167 = SURFACE_STYLE_USAGE ( .BOTH. , #41 ) ;
#168 = ORIENTED_EDGE ( 'NONE', *, *, #125, .F. ) ;
#169 = AXIS2_PLACEMENT_3D ( 'NONE', #102, #130, #332 ) ;
#170 = EDGE_CURVE ( 'NONE', #61, #66, #309, .T. ) ;
#171 = ORIENTED_EDGE ( 'NONE', *, *, #101, .F. ) ;
#172 = DIRECTION ( 'NONE',  ( -1.000000000000000000, 0.000000000000000000, 0.000000000000000000 ) ) ;
#173 = EDGE_CURVE ( 'NONE', #110, #14, #203, .T. ) ;
#174 = DIRECTION ( 'NONE',  ( 1.000000000000000000, 0.000000000000000000, 0.000000000000000000 ) ) ;
#175 = VECTOR ( 'NONE', #215, 1000.000000000000114 ) ;
#176 = DIRECTION ( 'NONE',  ( -1.000000000000000000, 0.000000000000000000, 0.000000000000000000 ) ) ;
#177 = DIRECTION ( 'NONE',  ( 0.000000000000000000, 1.000000000000000000, 0.000000000000000000 ) ) ;
#178 = PRODUCT ( 'GLM5-025B-500-IR1', 'GLM5-025B-500-IR1', '', ( #181 ) ) ;
#179 = CARTESIAN_POINT ( 'NONE',  ( 12.69999999999999929, 1.555301434917138433E-15, 13.39999999999996660 ) ) ;
#180 = AXIS2_PLACEMENT_3D ( 'NONE', #217, #316, #299 ) ;
#181 = PRODUCT_CONTEXT ( 'NONE', #27, 'mechanical' ) ;
#182 = CARTESIAN_POINT ( 'NONE',  ( 0.000000000000000000, 0.000000000000000000, 9.979855148039979085 ) ) ;
#183 = DIRECTION ( 'NONE',  ( 1.000000000000000000, 0.000000000000000000, 0.000000000000000000 ) ) ;
#184 = DIRECTION ( 'NONE',  ( 0.000000000000000000, 0.000000000000000000, -1.000000000000000000 ) ) ;
#185 = FACE_OUTER_BOUND ( 'NONE', #252, .T. ) ;
#186 = FACE_OUTER_BOUND ( 'NONE', #120, .T. ) ;
#187 = FILL_AREA_STYLE_COLOUR ( '', #212 ) ;
#188 = EDGE_LOOP ( 'NONE', ( #20, #43, #324, #162 ) ) ;
#189 = VECTOR ( 'NONE', #30, 1000.000000000000000 ) ;
#190 =( LENGTH_UNIT ( ) NAMED_UNIT ( * ) SI_UNIT ( .MILLI., .METRE. ) );
#191 = ORIENTED_EDGE ( 'NONE', *, *, #124, .T. ) ;
#192 = ORIENTED_EDGE ( 'NONE', *, *, #71, .F. ) ;
#193 =( LENGTH_UNIT ( ) NAMED_UNIT ( * ) SI_UNIT ( .MILLI., .METRE. ) );
#194 = ORIENTED_EDGE ( 'NONE', *, *, #7, .T. ) ;
#195 = CONICAL_SURFACE ( 'NONE', #2, 12.50763511949362794, 0.7853981633973986520 ) ;
#196 = SURFACE_STYLE_FILL_AREA ( #13 ) ;
#197 = EDGE_CURVE ( 'NONE', #163, #61, #216, .T. ) ;
#198 = CONICAL_SURFACE ( 'NONE', #298, 12.69999999999999929, 0.6836225510729435628 ) ;
#199 = ORIENTED_EDGE ( 'NONE', *, *, #17, .T. ) ;
#200 = CARTESIAN_POINT ( 'NONE',  ( 12.50763511949364570, 1.543522483158114931E-15, 13.59236488050630243 ) ) ;
#201 = DIRECTION ( 'NONE',  ( -1.000000000000000000, 0.000000000000000000, 0.000000000000000000 ) ) ;
#202 = DIRECTION ( 'NONE',  ( 1.000000000000000000, 0.000000000000000000, 0.000000000000000000 ) ) ;
#203 = CIRCLE ( 'NONE', #226, 12.69999999999999929 ) ;
#204 = CIRCLE ( 'NONE', #250, 125.0000000000000000 ) ;
#205 = DIRECTION ( 'NONE',  ( -1.000000000000000000, 1.224646799147353207E-16, 0.000000000000000000 ) ) ;
#206 = DIRECTION ( 'NONE',  ( 1.000000000000000000, 0.000000000000000000, 0.000000000000000000 ) ) ;
#207 = EDGE_CURVE ( 'NONE', #66, #92, #99, .T. ) ;
#208 = DIRECTION ( 'NONE',  ( -0.000000000000000000, -0.000000000000000000, -1.000000000000000000 ) ) ;
#209 = SHAPE_DEFINITION_REPRESENTATION ( #289, #82 ) ;
#210 = DIRECTION ( 'NONE',  ( 1.000000000000000000, 0.000000000000000000, 0.000000000000000000 ) ) ;
#211 = VECTOR ( 'NONE', #303, 1000.000000000000000 ) ;
#212 = COLOUR_RGB ( '',1.000000000000000000, 1.000000000000000000, 1.000000000000000000 ) ;
#213 = CARTESIAN_POINT ( 'NONE',  ( 0.000000000000000000, 0.000000000000000000, 10.22390766693323449 ) ) ;
#214 = CARTESIAN_POINT ( 'NONE',  ( -12.50763511949362794, 0.000000000000000000, 13.59236488050635749 ) ) ;
#215 = DIRECTION ( 'NONE',  ( -0.7071067811865124897, 0.000000000000000000, -0.7071067811865825448 ) ) ;
#216 = CIRCLE ( 'NONE', #237, 12.50117762165416302 ) ;
#217 = CARTESIAN_POINT ( 'NONE',  ( 0.000000000000000000, 0.000000000000000000, 331.1461383799211262 ) ) ;
#218 = CARTESIAN_POINT ( 'NONE',  ( 0.000000000000000000, 0.000000000000000000, 13.59236488050635749 ) ) ;
#219 = ORIENTED_EDGE ( 'NONE', *, *, #173, .T. ) ;
#220 = ORIENTED_EDGE ( 'NONE', *, *, #124, .F. ) ;
#221 = CIRCLE ( 'NONE', #249, 12.69999999999999929 ) ;
#222 = ADVANCED_FACE ( 'NONE', ( #33 ), #133, .T. ) ;
#223 = EDGE_LOOP ( 'NONE', ( #87, #271, #42, #15, #63 ) ) ;
#224 = ORIENTED_EDGE ( 'NONE', *, *, #88, .F. ) ;
#225 = ORIENTED_EDGE ( 'NONE', *, *, #97, .F. ) ;
#226 = AXIS2_PLACEMENT_3D ( 'NONE', #157, #311, #106 ) ;
#227 =( GEOMETRIC_REPRESENTATION_CONTEXT ( 3 ) GLOBAL_UNCERTAINTY_ASSIGNED_CONTEXT ( ( #329 ) ) GLOBAL_UNIT_ASSIGNED_CONTEXT ( ( #144, #159, #164 ) ) REPRESENTATION_CONTEXT ( 'NONE', 'WORKASPACE' ) );
#228 = VERTEX_POINT ( 'NONE', #75 ) ;
#229 = CARTESIAN_POINT ( 'NONE',  ( 0.000000000000000000, 0.000000000000000000, 20.00000000000000000 ) ) ;
#230 = CARTESIAN_POINT ( 'NONE',  ( -12.69999999999999929, 0.000000000000000000, 13.39999999999996660 ) ) ;
#231 = DIRECTION ( 'NONE',  ( -0.000000000000000000, -0.000000000000000000, 1.000000000000000000 ) ) ;
#232 = CIRCLE ( 'NONE', #128, 12.50763511949364570 ) ;
#233 = FACE_OUTER_BOUND ( 'NONE', #95, .T. ) ;
#234 = CARTESIAN_POINT ( 'NONE',  ( 0.000000000000000000, 0.000000000000000000, 13.39999999999996660 ) ) ;
#235 = EDGE_CURVE ( 'NONE', #143, #59, #35, .T. ) ;
#236 = CARTESIAN_POINT ( 'NONE',  ( 12.50763511949362794, 1.531743531399089458E-15, 13.59236488050635749 ) ) ;
#237 = AXIS2_PLACEMENT_3D ( 'NONE', #134, #265, #210 ) ;
#238 = PRESENTATION_LAYER_ASSIGNMENT (  '', '', ( #257 ) ) ;
#239 = DIRECTION ( 'NONE',  ( 0.000000000000000000, 0.000000000000000000, -1.000000000000000000 ) ) ;
#240 = DIRECTION ( 'NONE',  ( 1.000000000000000000, 0.000000000000000000, 0.000000000000000000 ) ) ;
#241 = EDGE_CURVE ( 'NONE', #297, #163, #287, .T. ) ;
#242 = LINE ( 'NONE', #214, #175 ) ;
#243 = FACE_OUTER_BOUND ( 'NONE', #223, .T. ) ;
#244 = EDGE_CURVE ( 'NONE', #59, #110, #242, .T. ) ;
#245 = ADVANCED_FACE ( 'NONE', ( #8 ), #155, .T. ) ;
#246 = EDGE_LOOP ( 'NONE', ( #269, #254, #171, #80, #168 ) ) ;
#247 = APPLICATION_PROTOCOL_DEFINITION ( 'draft international standard', 'automotive_design', 1998, #27 ) ;
#248 = ORIENTED_EDGE ( 'NONE', *, *, #6, .F. ) ;
#249 = AXIS2_PLACEMENT_3D ( 'NONE', #46, #306, #172 ) ;
#250 = AXIS2_PLACEMENT_3D ( 'NONE', #150, #205, #67 ) ;
#251 = CARTESIAN_POINT ( 'NONE',  ( 0.000000000000000000, 0.000000000000000000, 0.000000000000000000 ) ) ;
#252 = EDGE_LOOP ( 'NONE', ( #39, #145, #192, #38, #224 ) ) ;
#253 = EDGE_CURVE ( 'NONE', #228, #294, #11, .T. ) ;
#254 = ORIENTED_EDGE ( 'NONE', *, *, #146, .F. ) ;
#255 = ORIENTED_EDGE ( 'NONE', *, *, #281, .T. ) ;
#256 = CIRCLE ( 'NONE', #84, 12.50763511949364570 ) ;
#257 = STYLED_ITEM ( 'NONE', ( #34 ), #315 ) ;
#258 = DIRECTION ( 'NONE',  ( 0.000000000000000000, 1.000000000000000000, 0.000000000000000000 ) ) ;
#259 = CARTESIAN_POINT ( 'NONE',  ( 0.000000000000000000, 0.000000000000000000, 13.59236488050630243 ) ) ;
#260 = LINE ( 'NONE', #284, #121 ) ;
#261 = AXIS2_PLACEMENT_3D ( 'NONE', #213, #52, #56 ) ;
#262 = DIRECTION ( 'NONE',  ( 0.000000000000000000, 0.000000000000000000, -1.000000000000000000 ) ) ;
#263 = UNCERTAINTY_MEASURE_WITH_UNIT (LENGTH_MEASURE( 1.000000000000000082E-05 ), #193, 'distance_accuracy_value', 'NONE');
#264 = CARTESIAN_POINT ( 'NONE',  ( 0.000000000000000000, 0.000000000000000000, 13.59236488050630243 ) ) ;
#265 = DIRECTION ( 'NONE',  ( 0.000000000000000000, 0.000000000000000000, -1.000000000000000000 ) ) ;
#266 = CARTESIAN_POINT ( 'NONE',  ( 0.000000000000000000, 0.000000000000000000, 13.59236488050630243 ) ) ;
#267 = CARTESIAN_POINT ( 'NONE',  ( 0.000000000000000000, 12.50763511949312701, 13.59236488050630243 ) ) ;
#268 = AXIS2_PLACEMENT_3D ( 'NONE', #68, #51, #174 ) ;
#269 = ORIENTED_EDGE ( 'NONE', *, *, #148, .F. ) ;
#270 = ADVANCED_FACE ( 'NONE', ( #185 ), #198, .T. ) ;
#271 = ORIENTED_EDGE ( 'NONE', *, *, #148, .T. ) ;
#272 = ORIENTED_EDGE ( 'NONE', *, *, #111, .T. ) ;
#273 = DIRECTION ( 'NONE',  ( -1.000000000000000000, 0.000000000000000000, 0.000000000000000000 ) ) ;
#274 = ORIENTED_EDGE ( 'NONE', *, *, #88, .T. ) ;
#275 = ORIENTED_EDGE ( 'NONE', *, *, #207, .T. ) ;
#276 = CARTESIAN_POINT ( 'NONE',  ( -12.69999999999999929, 0.000000000000000000, 10.22390766693323449 ) ) ;
#277 = PRODUCT_RELATED_PRODUCT_CATEGORY ( 'part', '', ( #178 ) ) ;
#278 = CIRCLE ( 'NONE', #104, 12.69999999999999929 ) ;
#279 = DIRECTION ( 'NONE',  ( 0.000000000000000000, 0.000000000000000000, -1.000000000000000000 ) ) ;
#280 = FACE_OUTER_BOUND ( 'NONE', #296, .T. ) ;
#281 = EDGE_CURVE ( 'NONE', #37, #65, #94, .T. ) ;
#282 = CARTESIAN_POINT ( 'NONE',  ( -12.69999999999999929, 1.555301434917138433E-15, 10.22390766693323449 ) ) ;
#283 = DIRECTION ( 'NONE',  ( -1.000000000000000000, 0.000000000000000000, 0.000000000000000000 ) ) ;
#284 = CARTESIAN_POINT ( 'NONE',  ( 12.69999999999999929, 1.555301434917138433E-15, 20.00000000000000000 ) ) ;
#285 = CARTESIAN_POINT ( 'NONE',  ( 12.69999999999999929, 0.000000000000000000, 10.22390766693323449 ) ) ;
#286 = DIRECTION ( 'NONE',  ( -0.000000000000000000, -0.000000000000000000, -1.000000000000000000 ) ) ;
#287 = CIRCLE ( 'NONE', #44, 125.0000000000000000 ) ;
#288 = CARTESIAN_POINT ( 'NONE',  ( 0.000000000000000000, 0.000000000000000000, 10.22390766693323449 ) ) ;
#289 = PRODUCT_DEFINITION_SHAPE ( 'NONE', 'NONE',  #21 ) ;
#290 = FACE_OUTER_BOUND ( 'NONE', #246, .T. ) ;
#291 = ORIENTED_EDGE ( 'NONE', *, *, #170, .F. ) ;
#292 =( GEOMETRIC_REPRESENTATION_CONTEXT ( 3 ) GLOBAL_UNCERTAINTY_ASSIGNED_CONTEXT ( ( #322 ) ) GLOBAL_UNIT_ASSIGNED_CONTEXT ( ( #190, #318, #60 ) ) REPRESENTATION_CONTEXT ( 'NONE', 'WORKASPACE' ) );
#293 = SURFACE_SIDE_STYLE ('',( #139 ) ) ;
#294 = VERTEX_POINT ( 'NONE', #18 ) ;
#295 = PRODUCT_DEFINITION_CONTEXT ( 'detailed design', #48, 'design' ) ;
#296 = EDGE_LOOP ( 'NONE', ( #165, #255, #117, #272 ) ) ;
#297 = VERTEX_POINT ( 'NONE', #91 ) ;
#298 = AXIS2_PLACEMENT_3D ( 'NONE', #288, #109, #158 ) ;
#299 = DIRECTION ( 'NONE',  ( -1.224646799147353207E-16, -1.000000000000000000, 0.000000000000000000 ) ) ;
#300 = ORIENTED_EDGE ( 'NONE', *, *, #6, .T. ) ;
#301 = DIRECTION ( 'NONE',  ( 1.000000000000000000, 0.000000000000000000, 0.000000000000000000 ) ) ;
#302 = ADVANCED_FACE ( 'NONE', ( #243 ), #73, .T. ) ;
#303 = DIRECTION ( 'NONE',  ( -0.000000000000000000, -0.000000000000000000, -1.000000000000000000 ) ) ;
#304 = VECTOR ( 'NONE', #307, 1000.000000000000000 ) ;
#305 = FACE_OUTER_BOUND ( 'NONE', #188, .T. ) ;
#306 = DIRECTION ( 'NONE',  ( -0.000000000000000000, -0.000000000000000000, 1.000000000000000000 ) ) ;
#307 = DIRECTION ( 'NONE',  ( -0.6316056889623122839, 7.734938853109543876E-17, 0.7752897868993521291 ) ) ;
#308 = AXIS2_PLACEMENT_3D ( 'NONE', #266, #156, #77 ) ;
#309 = LINE ( 'NONE', #285, #189 ) ;
#310 = DIRECTION ( 'NONE',  ( -0.000000000000000000, -0.000000000000000000, 1.000000000000000000 ) ) ;
#311 = DIRECTION ( 'NONE',  ( 0.000000000000000000, 0.000000000000000000, -1.000000000000000000 ) ) ;
#312 = DIRECTION ( 'NONE',  ( 1.000000000000000000, 0.000000000000000000, 0.000000000000000000 ) ) ;
#313 = AXIS2_PLACEMENT_3D ( 'NONE', #229, #208, #201 ) ;
#314 = AXIS2_PLACEMENT_3D ( 'NONE', #182, #10, #312 ) ;
#315 = MANIFOLD_SOLID_BREP ( 'µ¹½Ç2', #78 ) ;
#316 = DIRECTION ( 'NONE',  ( -1.000000000000000000, 1.224646799147353207E-16, 0.000000000000000000 ) ) ;
#317 = ORIENTED_EDGE ( 'NONE', *, *, #71, .T. ) ;
#318 =( NAMED_UNIT ( * ) PLANE_ANGLE_UNIT ( ) SI_UNIT ( $, .RADIAN. ) );
#319 = ORIENTED_EDGE ( 'NONE', *, *, #207, .F. ) ;
#320 = AXIS2_PLACEMENT_3D ( 'NONE', #136, #310, #74 ) ;
#321 = ORIENTED_EDGE ( 'NONE', *, *, #97, .T. ) ;
#322 = UNCERTAINTY_MEASURE_WITH_UNIT (LENGTH_MEASURE( 1.000000000000000082E-05 ), #190, 'distance_accuracy_value', 'NONE');
#323 = FILL_AREA_STYLE ('',( #36 ) ) ;
#324 = ORIENTED_EDGE ( 'NONE', *, *, #235, .T. ) ;
#325 = EDGE_LOOP ( 'NONE', ( #119, #199, #140, #300 ) ) ;
#326 = AXIS2_PLACEMENT_3D ( 'NONE', #331, #100, #1 ) ;
#327 = CARTESIAN_POINT ( 'NONE',  ( -12.50763511949364570, 0.000000000000000000, 13.59236488050630243 ) ) ;
#328 = LINE ( 'NONE', #96, #211 ) ;
#329 = UNCERTAINTY_MEASURE_WITH_UNIT (LENGTH_MEASURE( 1.000000000000000082E-05 ), #144, 'distance_accuracy_value', 'NONE');
#330 = CARTESIAN_POINT ( 'NONE',  ( 0.000000000000000000, 1.945963763845144281E-14, 13.34613837992110241 ) ) ;
#331 = CARTESIAN_POINT ( 'NONE',  ( 0.000000000000000000, 0.000000000000000000, 331.1461383799211262 ) ) ;
#332 = DIRECTION ( 'NONE',  ( 1.000000000000000000, 0.000000000000000000, 0.000000000000000000 ) ) ;
ENDSEC;
END-ISO-10303-21;
