ISO-10303-21;
HEADER;
FILE_DESCRIPTION (( 'STEP AP214' ),
    '1' );
FILE_NAME ('155000.STEP',
    '2019-06-14T02:49:05',
    ( 'user' ),
    ( 'Î¢ÈíÖÐ¹ú' ),
    'SwSTEP 2.0',
    'SolidWorks 2016',
    '' );
FILE_SCHEMA (( 'AUTOMOTIVE_DESIGN' ));
ENDSEC;

DATA;
#1 = LINE ( 'NONE', #184, #171 ) ;
#2 = DIRECTION ( 'NONE',  ( 4.336808689942017700E-016, 0.0000000000000000000, -1.000000000000000000 ) ) ;
#3 = ORIENTED_EDGE ( 'NONE', *, *, #50, .T. ) ;
#4 = ORIENTED_EDGE ( 'NONE', *, *, #15, .T. ) ;
#5 = PRODUCT_DEFINITION ( 'Î´Öª', '', #81, #133 ) ;
#6 = CARTESIAN_POINT ( 'NONE',  ( 0.0000000000000000000, 0.0000000000000000000, 0.0000000000000000000 ) ) ;
#7 = CARTESIAN_POINT ( 'NONE',  ( -2.000000000000000000, 5.000000000000000000, 4.999999999999999100 ) ) ;
#8 = CARTESIAN_POINT ( 'NONE',  ( 8.022918736575690000, 0.0000000000000000000, 2.500000000000000000 ) ) ;
#9 = DIRECTION ( 'NONE',  ( 0.0000000000000000000, 1.000000000000000000, 0.0000000000000000000 ) ) ;
#10 = EDGE_CURVE ( 'NONE', #51, #194, #84, .T. ) ;
#11 = PRESENTATION_STYLE_ASSIGNMENT (( #109 ) ) ;
#12 = ORIENTED_EDGE ( 'NONE', *, *, #44, .F. ) ;
#13 = ORIENTED_EDGE ( 'NONE', *, *, #115, .F. ) ;
#14 =( GEOMETRIC_REPRESENTATION_CONTEXT ( 3 ) GLOBAL_UNCERTAINTY_ASSIGNED_CONTEXT ( ( #181 ) ) GLOBAL_UNIT_ASSIGNED_CONTEXT ( ( #19, #196, #83 ) ) REPRESENTATION_CONTEXT ( 'NONE', 'WORKASPACE' ) );
#15 = EDGE_CURVE ( 'NONE', #135, #178, #97, .T. ) ;
#16 = ORIENTED_EDGE ( 'NONE', *, *, #50, .F. ) ;
#17 = EDGE_LOOP ( 'NONE', ( #177, #161, #20, #63 ) ) ;
#18 = UNCERTAINTY_MEASURE_WITH_UNIT (LENGTH_MEASURE( 1.000000000000000100E-005 ), #56, 'distance_accuracy_value', 'NONE');
#19 =( LENGTH_UNIT ( ) NAMED_UNIT ( * ) SI_UNIT ( .MILLI., .METRE. ) );
#20 = ORIENTED_EDGE ( 'NONE', *, *, #118, .F. ) ;
#21 =( GEOMETRIC_REPRESENTATION_CONTEXT ( 3 ) GLOBAL_UNCERTAINTY_ASSIGNED_CONTEXT ( ( #18 ) ) GLOBAL_UNIT_ASSIGNED_CONTEXT ( ( #56, #47, #167 ) ) REPRESENTATION_CONTEXT ( 'NONE', 'WORKASPACE' ) );
#22 = CARTESIAN_POINT ( 'NONE',  ( 0.0000000000000000000, 5.000000000000000000, 5.000000000000000000 ) ) ;
#23 = SURFACE_STYLE_USAGE ( .BOTH. , #154 ) ;
#24 = PLANE ( 'NONE',  #149 ) ;
#25 = CARTESIAN_POINT ( 'NONE',  ( 8.022918736575690000, 0.0000000000000000000, 2.500000000000000000 ) ) ;
#26 = DIRECTION ( 'NONE',  ( 0.0000000000000000000, 0.0000000000000000000, 1.000000000000000000 ) ) ;
#27 = ADVANCED_FACE ( 'NONE', ( #186 ), #24, .F. ) ;
#28 = CARTESIAN_POINT ( 'NONE',  ( 0.0000000000000000000, 5.000000000000000000, 0.0000000000000000000 ) ) ;
#29 = FACE_OUTER_BOUND ( 'NONE', #199, .T. ) ;
#30 =( NAMED_UNIT ( * ) SI_UNIT ( $, .STERADIAN. ) SOLID_ANGLE_UNIT ( ) );
#31 = EDGE_LOOP ( 'NONE', ( #172, #69, #162, #191 ) ) ;
#32 = DIRECTION ( 'NONE',  ( -1.000000000000000000, 0.0000000000000000000, 0.0000000000000000000 ) ) ;
#33 = CARTESIAN_POINT ( 'NONE',  ( -2.000000000000000000, 0.0000000000000000000, 4.999999999999999100 ) ) ;
#34 = CARTESIAN_POINT ( 'NONE',  ( 8.022918736575690000, 5.000000000000000000, 2.500000000000000000 ) ) ;
#35 = ORIENTED_EDGE ( 'NONE', *, *, #44, .T. ) ;
#36 = STYLED_ITEM ( 'NONE', ( #102 ), #37 ) ;
#37 = ADVANCED_BREP_SHAPE_REPRESENTATION ( '155000', ( #96, #85 ), #182 ) ;
#38 = CARTESIAN_POINT ( 'NONE',  ( 0.0000000000000000000, 0.0000000000000000000, 0.0000000000000000000 ) ) ;
#39 = AXIS2_PLACEMENT_3D ( 'NONE', #8, #159, #72 ) ;
#40 = VECTOR ( 'NONE', #165, 1000.000000000000000 ) ;
#41 = DIRECTION ( 'NONE',  ( -1.000000000000000000, 0.0000000000000000000, -4.336808689942017700E-016 ) ) ;
#42 = VERTEX_POINT ( 'NONE', #61 ) ;
#43 =( LENGTH_UNIT ( ) NAMED_UNIT ( * ) SI_UNIT ( .MILLI., .METRE. ) );
#44 = EDGE_CURVE ( 'NONE', #204, #194, #98, .T. ) ;
#45 = DIRECTION ( 'NONE',  ( 1.000000000000000000, -0.0000000000000000000, 4.336808689942017700E-016 ) ) ;
#46 = EDGE_CURVE ( 'NONE', #58, #135, #104, .T. ) ;
#47 =( NAMED_UNIT ( * ) PLANE_ANGLE_UNIT ( ) SI_UNIT ( $, .RADIAN. ) );
#48 = CLOSED_SHELL ( 'NONE', ( #166, #175, #117, #27, #131, #105 ) ) ;
#49 = LINE ( 'NONE', #6, #73 ) ;
#50 = EDGE_CURVE ( 'NONE', #178, #204, #197, .T. ) ;
#51 = VERTEX_POINT ( 'NONE', #158 ) ;
#52 = ORIENTED_EDGE ( 'NONE', *, *, #130, .F. ) ;
#53 = MECHANICAL_DESIGN_GEOMETRIC_PRESENTATION_REPRESENTATION (  '', ( #36 ), #14 ) ;
#54 = DIRECTION ( 'NONE',  ( -0.0000000000000000000, -1.000000000000000000, -0.0000000000000000000 ) ) ;
#55 = DIRECTION ( 'NONE',  ( -0.0000000000000000000, -1.000000000000000000, -0.0000000000000000000 ) ) ;
#56 =( LENGTH_UNIT ( ) NAMED_UNIT ( * ) SI_UNIT ( .MILLI., .METRE. ) );
#57 = VECTOR ( 'NONE', #111, 1000.000000000000000 ) ;
#58 = VERTEX_POINT ( 'NONE', #28 ) ;
#59 = APPLICATION_PROTOCOL_DEFINITION ( 'draft international standard', 'automotive_design', 1998, #174 ) ;
#60 = EDGE_CURVE ( 'NONE', #58, #42, #185, .T. ) ;
#61 = CARTESIAN_POINT ( 'NONE',  ( -2.000000000000000000, 5.000000000000000000, -8.673617379884035500E-016 ) ) ;
#62 = PLANE ( 'NONE',  #198 ) ;
#63 = ORIENTED_EDGE ( 'NONE', *, *, #10, .T. ) ;
#64 = EDGE_CURVE ( 'NONE', #107, #204, #88, .T. ) ;
#65 = ORIENTED_EDGE ( 'NONE', *, *, #46, .T. ) ;
#66 = COLOUR_RGB ( '',1.000000000000000000, 1.000000000000000000, 1.000000000000000000 ) ;
#67 = CARTESIAN_POINT ( 'NONE',  ( 0.0000000000000000000, 0.0000000000000000000, 5.000000000000000000 ) ) ;
#68 = CARTESIAN_POINT ( 'NONE',  ( 0.0000000000000000000, 5.000000000000000000, 0.0000000000000000000 ) ) ;
#69 = ORIENTED_EDGE ( 'NONE', *, *, #155, .T. ) ;
#70 = APPLICATION_CONTEXT ( 'automotive_design' ) ;
#71 = PLANE ( 'NONE',  #119 ) ;
#72 = DIRECTION ( 'NONE',  ( 0.0000000000000000000, -0.0000000000000000000, 1.000000000000000000 ) ) ;
#73 = VECTOR ( 'NONE', #106, 1000.000000000000000 ) ;
#74 = FILL_AREA_STYLE ('',( #120 ) ) ;
#75 = SURFACE_SIDE_STYLE ('',( #101 ) ) ;
#76 = DIRECTION ( 'NONE',  ( 0.0000000000000000000, 0.0000000000000000000, -1.000000000000000000 ) ) ;
#77 = ORIENTED_EDGE ( 'NONE', *, *, #64, .F. ) ;
#78 = DIRECTION ( 'NONE',  ( 1.224646799147353200E-016, -0.0000000000000000000, 1.000000000000000000 ) ) ;
#79 = VECTOR ( 'NONE', #94, 1000.000000000000000 ) ;
#80 = UNCERTAINTY_MEASURE_WITH_UNIT (LENGTH_MEASURE( 1.000000000000000100E-005 ), #43, 'distance_accuracy_value', 'NONE');
#81 = PRODUCT_DEFINITION_FORMATION_WITH_SPECIFIED_SOURCE ( 'ÈÎºÎ', '', #145, .NOT_KNOWN. ) ;
#82 = DIRECTION ( 'NONE',  ( 1.000000000000000000, -0.0000000000000000000, 4.336808689942017700E-016 ) ) ;
#83 =( NAMED_UNIT ( * ) SI_UNIT ( $, .STERADIAN. ) SOLID_ANGLE_UNIT ( ) );
#84 = LINE ( 'NONE', #22, #150 ) ;
#85 = AXIS2_PLACEMENT_3D ( 'NONE', #190, #26, #124 ) ;
#86 = AXIS2_PLACEMENT_3D ( 'NONE', #68, #78, #129 ) ;
#87 = ORIENTED_EDGE ( 'NONE', *, *, #155, .F. ) ;
#88 = LINE ( 'NONE', #99, #57 ) ;
#89 = PRODUCT_RELATED_PRODUCT_CATEGORY ( 'part', '', ( #145 ) ) ;
#90 = ORIENTED_EDGE ( 'NONE', *, *, #64, .T. ) ;
#91 = ORIENTED_EDGE ( 'NONE', *, *, #10, .F. ) ;
#92 = PLANE ( 'NONE',  #39 ) ;
#93 = CIRCLE ( 'NONE', #170, 10.33000000000000000 ) ;
#94 = DIRECTION ( 'NONE',  ( -1.000000000000000000, 0.0000000000000000000, 1.224646799147353200E-016 ) ) ;
#95 = LINE ( 'NONE', #187, #168 ) ;
#96 = MANIFOLD_SOLID_BREP ( 'Í¹Ì¨-À­Éì1', #48 ) ;
#97 = LINE ( 'NONE', #112, #40 ) ;
#98 = LINE ( 'NONE', #151, #141 ) ;
#99 = CARTESIAN_POINT ( 'NONE',  ( -2.000000000000000000, 5.000000000000000000, 4.999999999999999100 ) ) ;
#100 = DIRECTION ( 'NONE',  ( 0.0000000000000000000, 1.000000000000000000, 0.0000000000000000000 ) ) ;
#101 = SURFACE_STYLE_FILL_AREA ( #123 ) ;
#102 = PRESENTATION_STYLE_ASSIGNMENT (( #23 ) ) ;
#103 = DIRECTION ( 'NONE',  ( -0.0000000000000000000, -0.0000000000000000000, -1.000000000000000000 ) ) ;
#104 = LINE ( 'NONE', #183, #189 ) ;
#105 = ADVANCED_FACE ( 'NONE', ( #201 ), #92, .F. ) ;
#106 = DIRECTION ( 'NONE',  ( -0.0000000000000000000, -0.0000000000000000000, -1.000000000000000000 ) ) ;
#107 = VERTEX_POINT ( 'NONE', #7 ) ;
#108 = APPLICATION_PROTOCOL_DEFINITION ( 'draft international standard', 'automotive_design', 1998, #70 ) ;
#109 = SURFACE_STYLE_USAGE ( .BOTH. , #75 ) ;
#110 = ORIENTED_EDGE ( 'NONE', *, *, #126, .T. ) ;
#111 = DIRECTION ( 'NONE',  ( -0.0000000000000000000, -1.000000000000000000, -0.0000000000000000000 ) ) ;
#112 = CARTESIAN_POINT ( 'NONE',  ( 0.0000000000000000000, 0.0000000000000000000, 0.0000000000000000000 ) ) ;
#113 = EDGE_LOOP ( 'NONE', ( #3, #77, #87, #110 ) ) ;
#114 = PRODUCT_CONTEXT ( 'NONE', #174, 'mechanical' ) ;
#115 = EDGE_CURVE ( 'NONE', #107, #51, #127, .T. ) ;
#116 = SURFACE_STYLE_FILL_AREA ( #74 ) ;
#117 = ADVANCED_FACE ( 'NONE', ( #156 ), #71, .F. ) ;
#118 = EDGE_CURVE ( 'NONE', #51, #58, #1, .T. ) ;
#119 = AXIS2_PLACEMENT_3D ( 'NONE', #128, #2, #41 ) ;
#120 = FILL_AREA_STYLE_COLOUR ( '', #142 ) ;
#121 = VECTOR ( 'NONE', #82, 1000.000000000000000 ) ;
#122 = DIRECTION ( 'NONE',  ( 0.0000000000000000000, 0.0000000000000000000, 1.000000000000000000 ) ) ;
#123 = FILL_AREA_STYLE ('',( #179 ) ) ;
#124 = DIRECTION ( 'NONE',  ( 1.000000000000000000, 0.0000000000000000000, 0.0000000000000000000 ) ) ;
#125 = CARTESIAN_POINT ( 'NONE',  ( 0.0000000000000000000, 5.000000000000000000, 0.0000000000000000000 ) ) ;
#126 = EDGE_CURVE ( 'NONE', #42, #178, #95, .T. ) ;
#127 = LINE ( 'NONE', #202, #121 ) ;
#128 = CARTESIAN_POINT ( 'NONE',  ( 0.0000000000000000000, 5.000000000000000000, 5.000000000000000000 ) ) ;
#129 = DIRECTION ( 'NONE',  ( 1.000000000000000000, 0.0000000000000000000, -1.224646799147353200E-016 ) ) ;
#130 = EDGE_CURVE ( 'NONE', #194, #135, #49, .T. ) ;
#131 = ADVANCED_FACE ( 'NONE', ( #193 ), #62, .T. ) ;
#132 = ORIENTED_EDGE ( 'NONE', *, *, #60, .F. ) ;
#133 = PRODUCT_DEFINITION_CONTEXT ( 'detailed design', #70, 'design' ) ;
#134 = DIRECTION ( 'NONE',  ( 0.0000000000000000000, 1.000000000000000000, 0.0000000000000000000 ) ) ;
#135 = VERTEX_POINT ( 'NONE', #38 ) ;
#136 = EDGE_LOOP ( 'NONE', ( #173, #52, #12, #16 ) ) ;
#137 = AXIS2_PLACEMENT_3D ( 'NONE', #180, #139, #76 ) ;
#138 = AXIS2_PLACEMENT_3D ( 'NONE', #25, #134, #122 ) ;
#139 = DIRECTION ( 'NONE',  ( -0.0000000000000000000, -1.000000000000000000, -0.0000000000000000000 ) ) ;
#140 = MECHANICAL_DESIGN_GEOMETRIC_PRESENTATION_REPRESENTATION (  '', ( #143 ), #21 ) ;
#141 = VECTOR ( 'NONE', #45, 1000.000000000000000 ) ;
#142 = COLOUR_RGB ( '',1.000000000000000000, 1.000000000000000000, 1.000000000000000000 ) ;
#143 = STYLED_ITEM ( 'NONE', ( #11 ), #96 ) ;
#144 = DIRECTION ( 'NONE',  ( 0.0000000000000000000, 0.0000000000000000000, 1.000000000000000000 ) ) ;
#145 = PRODUCT ( '155000', '155000', '', ( #114 ) ) ;
#146 =( NAMED_UNIT ( * ) PLANE_ANGLE_UNIT ( ) SI_UNIT ( $, .RADIAN. ) );
#147 = SHAPE_DEFINITION_REPRESENTATION ( #157, #37 ) ;
#148 = FACE_OUTER_BOUND ( 'NONE', #113, .T. ) ;
#149 = AXIS2_PLACEMENT_3D ( 'NONE', #163, #32, #200 ) ;
#150 = VECTOR ( 'NONE', #55, 1000.000000000000000 ) ;
#151 = CARTESIAN_POINT ( 'NONE',  ( 0.0000000000000000000, 0.0000000000000000000, 5.000000000000000000 ) ) ;
#152 = PRESENTATION_LAYER_ASSIGNMENT (  '', '', ( #36 ) ) ;
#153 = ORIENTED_EDGE ( 'NONE', *, *, #126, .F. ) ;
#154 = SURFACE_SIDE_STYLE ('',( #116 ) ) ;
#155 = EDGE_CURVE ( 'NONE', #42, #107, #93, .T. ) ;
#156 = FACE_OUTER_BOUND ( 'NONE', #160, .T. ) ;
#157 = PRODUCT_DEFINITION_SHAPE ( 'NONE', 'NONE',  #5 ) ;
#158 = CARTESIAN_POINT ( 'NONE',  ( 0.0000000000000000000, 5.000000000000000000, 5.000000000000000000 ) ) ;
#159 = DIRECTION ( 'NONE',  ( 0.0000000000000000000, 1.000000000000000000, 0.0000000000000000000 ) ) ;
#160 = EDGE_LOOP ( 'NONE', ( #35, #91, #13, #90 ) ) ;
#161 = ORIENTED_EDGE ( 'NONE', *, *, #46, .F. ) ;
#162 = ORIENTED_EDGE ( 'NONE', *, *, #115, .T. ) ;
#163 = CARTESIAN_POINT ( 'NONE',  ( 0.0000000000000000000, 5.000000000000000000, 0.0000000000000000000 ) ) ;
#164 = DIRECTION ( 'NONE',  ( -0.0000000000000000000, -1.000000000000000000, -0.0000000000000000000 ) ) ;
#165 = DIRECTION ( 'NONE',  ( -1.000000000000000000, 0.0000000000000000000, 1.224646799147353200E-016 ) ) ;
#166 = ADVANCED_FACE ( 'NONE', ( #29 ), #195, .F. ) ;
#167 =( NAMED_UNIT ( * ) SI_UNIT ( $, .STERADIAN. ) SOLID_ANGLE_UNIT ( ) );
#168 = VECTOR ( 'NONE', #164, 1000.000000000000000 ) ;
#169 = DIRECTION ( 'NONE',  ( 0.0000000000000000000, -0.0000000000000000000, 1.000000000000000000 ) ) ;
#170 = AXIS2_PLACEMENT_3D ( 'NONE', #192, #100, #144 ) ;
#171 = VECTOR ( 'NONE', #103, 1000.000000000000000 ) ;
#172 = ORIENTED_EDGE ( 'NONE', *, *, #60, .T. ) ;
#173 = ORIENTED_EDGE ( 'NONE', *, *, #15, .F. ) ;
#174 = APPLICATION_CONTEXT ( 'automotive_design' ) ;
#175 = ADVANCED_FACE ( 'NONE', ( #148 ), #176, .T. ) ;
#176 = CYLINDRICAL_SURFACE ( 'NONE', #137, 10.33000000000000000 ) ;
#177 = ORIENTED_EDGE ( 'NONE', *, *, #130, .T. ) ;
#178 = VERTEX_POINT ( 'NONE', #203 ) ;
#179 = FILL_AREA_STYLE_COLOUR ( '', #66 ) ;
#180 = CARTESIAN_POINT ( 'NONE',  ( 8.022918736575690000, 5.000000000000000000, 2.500000000000000000 ) ) ;
#181 = UNCERTAINTY_MEASURE_WITH_UNIT (LENGTH_MEASURE( 1.000000000000000100E-005 ), #19, 'distance_accuracy_value', 'NONE');
#182 =( GEOMETRIC_REPRESENTATION_CONTEXT ( 3 ) GLOBAL_UNCERTAINTY_ASSIGNED_CONTEXT ( ( #80 ) ) GLOBAL_UNIT_ASSIGNED_CONTEXT ( ( #43, #146, #30 ) ) REPRESENTATION_CONTEXT ( 'NONE', 'WORKASPACE' ) );
#183 = CARTESIAN_POINT ( 'NONE',  ( 0.0000000000000000000, 5.000000000000000000, 0.0000000000000000000 ) ) ;
#184 = CARTESIAN_POINT ( 'NONE',  ( 0.0000000000000000000, 5.000000000000000000, 0.0000000000000000000 ) ) ;
#185 = LINE ( 'NONE', #125, #79 ) ;
#186 = FACE_OUTER_BOUND ( 'NONE', #17, .T. ) ;
#187 = CARTESIAN_POINT ( 'NONE',  ( -2.000000000000000000, 5.000000000000000000, -8.673617379884035500E-016 ) ) ;
#188 = PRESENTATION_LAYER_ASSIGNMENT (  '', '', ( #143 ) ) ;
#189 = VECTOR ( 'NONE', #54, 1000.000000000000000 ) ;
#190 = CARTESIAN_POINT ( 'NONE',  ( 0.0000000000000000000, 0.0000000000000000000, 0.0000000000000000000 ) ) ;
#191 = ORIENTED_EDGE ( 'NONE', *, *, #118, .T. ) ;
#192 = CARTESIAN_POINT ( 'NONE',  ( 8.022918736575690000, 5.000000000000000000, 2.500000000000000000 ) ) ;
#193 = FACE_OUTER_BOUND ( 'NONE', #31, .T. ) ;
#194 = VERTEX_POINT ( 'NONE', #67 ) ;
#195 = PLANE ( 'NONE',  #86 ) ;
#196 =( NAMED_UNIT ( * ) PLANE_ANGLE_UNIT ( ) SI_UNIT ( $, .RADIAN. ) );
#197 = CIRCLE ( 'NONE', #138, 10.33000000000000000 ) ;
#198 = AXIS2_PLACEMENT_3D ( 'NONE', #34, #9, #169 ) ;
#199 = EDGE_LOOP ( 'NONE', ( #4, #153, #132, #65 ) ) ;
#200 = DIRECTION ( 'NONE',  ( 0.0000000000000000000, 0.0000000000000000000, 1.000000000000000000 ) ) ;
#201 = FACE_OUTER_BOUND ( 'NONE', #136, .T. ) ;
#202 = CARTESIAN_POINT ( 'NONE',  ( 0.0000000000000000000, 5.000000000000000000, 5.000000000000000000 ) ) ;
#203 = CARTESIAN_POINT ( 'NONE',  ( -2.000000000000000000, 0.0000000000000000000, -8.673617379884035500E-016 ) ) ;
#204 = VERTEX_POINT ( 'NONE', #33 ) ;
ENDSEC;
END-ISO-10303-21;
