ISO-10303-21;
HEADER;
FILE_DESCRIPTION (( 'STEP AP214' ),
    '1' );
FILE_NAME ('155006.STEP',
    '2019-06-18T05:40:56',
    ( 'user' ),
    ( 'Î¢ÈíÖÐ¹ú' ),
    'SwSTEP 2.0',
    'SolidWorks 2016',
    '' );
FILE_SCHEMA (( 'AUTOMOTIVE_DESIGN' ));
ENDSEC;

DATA;
#1 = VERTEX_POINT ( 'NONE', #57 ) ;
#2 = CARTESIAN_POINT ( 'NONE',  ( 2.418712661747558300, 9.000000000000000000, -3.500000000000000000 ) ) ;
#3 = STYLED_ITEM ( 'NONE', ( #191 ), #24 ) ;
#4 = CARTESIAN_POINT ( 'NONE',  ( 4.455204334851265100, 9.000000000000000000, -3.500000000000001800 ) ) ;
#5 = FACE_OUTER_BOUND ( 'NONE', #156, .T. ) ;
#6 = LINE ( 'NONE', #176, #67 ) ;
#7 = PRODUCT_DEFINITION ( 'Î´Öª', '', #117, #42 ) ;
#8 = CARTESIAN_POINT ( 'NONE',  ( 4.455204334851266900, 9.000000000000000000, 3.500000000000000000 ) ) ;
#9 = UNCERTAINTY_MEASURE_WITH_UNIT (LENGTH_MEASURE( 1.000000000000000100E-005 ), #177, 'distance_accuracy_value', 'NONE');
#10 = AXIS2_PLACEMENT_3D ( 'NONE', #72, #198, #133 ) ;
#11 = ORIENTED_EDGE ( 'NONE', *, *, #130, .T. ) ;
#12 = ORIENTED_EDGE ( 'NONE', *, *, #147, .F. ) ;
#13 =( LENGTH_UNIT ( ) NAMED_UNIT ( * ) SI_UNIT ( .MILLI., .METRE. ) );
#14 = CARTESIAN_POINT ( 'NONE',  ( 4.355204334851265500, 9.000000000000000000, 4.286263797015675000E-017 ) ) ;
#15 = COLOUR_RGB ( '',1.000000000000000000, 1.000000000000000000, 1.000000000000000000 ) ;
#16 = PRESENTATION_STYLE_ASSIGNMENT (( #131 ) ) ;
#17 = DIRECTION ( 'NONE',  ( 0.0000000000000000000, 0.0000000000000000000, -1.000000000000000000 ) ) ;
#18 = DIRECTION ( 'NONE',  ( 2.478176394252581100E-016, 0.0000000000000000000, 1.000000000000000000 ) ) ;
#19 = CARTESIAN_POINT ( 'NONE',  ( 2.418712661747558300, 0.0000000000000000000, 3.500000000000000000 ) ) ;
#20 = LINE ( 'NONE', #85, #102 ) ;
#21 = ORIENTED_EDGE ( 'NONE', *, *, #190, .T. ) ;
#22 = DIRECTION ( 'NONE',  ( -1.000000000000000000, -0.0000000000000000000, 8.518195772109438900E-016 ) ) ;
#23 = ORIENTED_EDGE ( 'NONE', *, *, #130, .F. ) ;
#24 = MANIFOLD_SOLID_BREP ( 'Í¹Ì¨-À­Éì1', #50 ) ;
#25 = ORIENTED_EDGE ( 'NONE', *, *, #204, .F. ) ;
#26 = ADVANCED_FACE ( 'NONE', ( #142 ), #167, .F. ) ;
#27 = DIRECTION ( 'NONE',  ( -0.0000000000000000000, -1.000000000000000000, -0.0000000000000000000 ) ) ;
#28 = DIRECTION ( 'NONE',  ( -1.000000000000000000, 0.0000000000000000000, -0.0000000000000000000 ) ) ;
#29 = CARTESIAN_POINT ( 'NONE',  ( 4.455204334851265100, 9.000000000000000000, -3.500000000000001800 ) ) ;
#30 = ORIENTED_EDGE ( 'NONE', *, *, #92, .F. ) ;
#31 = ORIENTED_EDGE ( 'NONE', *, *, #53, .F. ) ;
#32 = DIRECTION ( 'NONE',  ( -2.478176394252581100E-016, -0.0000000000000000000, -1.000000000000000000 ) ) ;
#33 = FILL_AREA_STYLE ('',( #128 ) ) ;
#34 =( LENGTH_UNIT ( ) NAMED_UNIT ( * ) SI_UNIT ( .MILLI., .METRE. ) );
#35 = LINE ( 'NONE', #145, #95 ) ;
#36 = ADVANCED_FACE ( 'NONE', ( #5 ), #83, .F. ) ;
#37 = ORIENTED_EDGE ( 'NONE', *, *, #123, .T. ) ;
#38 = SURFACE_SIDE_STYLE ('',( #187 ) ) ;
#39 = DIRECTION ( 'NONE',  ( 1.000000000000000000, 0.0000000000000000000, 0.0000000000000000000 ) ) ;
#40 = EDGE_CURVE ( 'NONE', #175, #1, #44, .T. ) ;
#41 = CARTESIAN_POINT ( 'NONE',  ( 2.418712661747558300, 9.000000000000000000, 3.500000000000000000 ) ) ;
#42 = PRODUCT_DEFINITION_CONTEXT ( 'detailed design', #64, 'design' ) ;
#43 = DIRECTION ( 'NONE',  ( -0.0000000000000000000, -1.000000000000000000, -0.0000000000000000000 ) ) ;
#44 = CIRCLE ( 'NONE', #81, 3.999999999999999100 ) ;
#45 = AXIS2_PLACEMENT_3D ( 'NONE', #139, #58, #28 ) ;
#46 = DIRECTION ( 'NONE',  ( 0.0000000000000000000, 1.000000000000000000, 0.0000000000000000000 ) ) ;
#47 = FACE_OUTER_BOUND ( 'NONE', #146, .T. ) ;
#48 = CARTESIAN_POINT ( 'NONE',  ( 2.418712661747558300, 9.000000000000000000, 3.500000000000000000 ) ) ;
#49 =( GEOMETRIC_REPRESENTATION_CONTEXT ( 3 ) GLOBAL_UNCERTAINTY_ASSIGNED_CONTEXT ( ( #9 ) ) GLOBAL_UNIT_ASSIGNED_CONTEXT ( ( #177, #186, #161 ) ) REPRESENTATION_CONTEXT ( 'NONE', 'WORKASPACE' ) );
#50 = CLOSED_SHELL ( 'NONE', ( #150, #26, #193, #36, #93, #159 ) ) ;
#51 = EDGE_LOOP ( 'NONE', ( #110, #30, #84, #155 ) ) ;
#52 = DIRECTION ( 'NONE',  ( -0.0000000000000000000, -1.000000000000000000, -0.0000000000000000000 ) ) ;
#53 = EDGE_CURVE ( 'NONE', #144, #1, #99, .T. ) ;
#54 = ORIENTED_EDGE ( 'NONE', *, *, #66, .F. ) ;
#55 = FACE_OUTER_BOUND ( 'NONE', #149, .T. ) ;
#56 = VECTOR ( 'NONE', #101, 1000.000000000000000 ) ;
#57 = CARTESIAN_POINT ( 'NONE',  ( 2.418712661747558300, 0.0000000000000000000, 3.500000000000000000 ) ) ;
#58 = DIRECTION ( 'NONE',  ( 0.0000000000000000000, 0.0000000000000000000, -1.000000000000000000 ) ) ;
#59 = ORIENTED_EDGE ( 'NONE', *, *, #92, .T. ) ;
#60 = FACE_OUTER_BOUND ( 'NONE', #51, .T. ) ;
#61 =( GEOMETRIC_REPRESENTATION_CONTEXT ( 3 ) GLOBAL_UNCERTAINTY_ASSIGNED_CONTEXT ( ( #194 ) ) GLOBAL_UNIT_ASSIGNED_CONTEXT ( ( #34, #179, #185 ) ) REPRESENTATION_CONTEXT ( 'NONE', 'WORKASPACE' ) );
#62 = FILL_AREA_STYLE ('',( #172 ) ) ;
#63 = DIRECTION ( 'NONE',  ( 0.0000000000000000000, 1.000000000000000000, 0.0000000000000000000 ) ) ;
#64 = APPLICATION_CONTEXT ( 'automotive_design' ) ;
#65 = COLOUR_RGB ( '',1.000000000000000000, 1.000000000000000000, 1.000000000000000000 ) ;
#66 = EDGE_CURVE ( 'NONE', #180, #82, #163, .T. ) ;
#67 = VECTOR ( 'NONE', #152, 1000.000000000000000 ) ;
#68 = VERTEX_POINT ( 'NONE', #184 ) ;
#69 = DIRECTION ( 'NONE',  ( -0.0000000000000000000, -1.000000000000000000, -0.0000000000000000000 ) ) ;
#70 = CIRCLE ( 'NONE', #104, 3.999999999999999100 ) ;
#71 = VECTOR ( 'NONE', #203, 1000.000000000000000 ) ;
#72 = CARTESIAN_POINT ( 'NONE',  ( 4.355204334851265500, 9.000000000000000000, 4.286263797015675000E-017 ) ) ;
#73 = EDGE_LOOP ( 'NONE', ( #21, #168, #23, #192 ) ) ;
#74 = EDGE_CURVE ( 'NONE', #180, #68, #6, .T. ) ;
#75 =( NAMED_UNIT ( * ) SI_UNIT ( $, .STERADIAN. ) SOLID_ANGLE_UNIT ( ) );
#76 = AXIS2_PLACEMENT_3D ( 'NONE', #2, #129, #77 ) ;
#77 = DIRECTION ( 'NONE',  ( 1.000000000000000000, 0.0000000000000000000, -8.518195772109438900E-016 ) ) ;
#78 = PRODUCT ( '155006', '155006', '', ( #200 ) ) ;
#79 = CARTESIAN_POINT ( 'NONE',  ( 4.355204334851265500, 9.000000000000000000, 4.286263797015675000E-017 ) ) ;
#80 = LINE ( 'NONE', #114, #116 ) ;
#81 = AXIS2_PLACEMENT_3D ( 'NONE', #118, #63, #97 ) ;
#82 = VERTEX_POINT ( 'NONE', #181 ) ;
#83 = PLANE ( 'NONE',  #76 ) ;
#84 = ORIENTED_EDGE ( 'NONE', *, *, #123, .F. ) ;
#85 = CARTESIAN_POINT ( 'NONE',  ( 2.418712661747558300, 0.0000000000000000000, -3.500000000000000000 ) ) ;
#86 = MECHANICAL_DESIGN_GEOMETRIC_PRESENTATION_REPRESENTATION (  '', ( #3 ), #61 ) ;
#87 = DIRECTION ( 'NONE',  ( 1.000000000000000000, 0.0000000000000000000, 0.0000000000000000000 ) ) ;
#88 = PRESENTATION_LAYER_ASSIGNMENT (  '', '', ( #126 ) ) ;
#89 = SURFACE_SIDE_STYLE ('',( #136 ) ) ;
#90 = VECTOR ( 'NONE', #43, 1000.000000000000000 ) ;
#91 = CYLINDRICAL_SURFACE ( 'NONE', #162, 3.999999999999999100 ) ;
#92 = EDGE_CURVE ( 'NONE', #82, #175, #20, .T. ) ;
#93 = ADVANCED_FACE ( 'NONE', ( #121 ), #106, .T. ) ;
#94 = ORIENTED_EDGE ( 'NONE', *, *, #109, .F. ) ;
#95 = VECTOR ( 'NONE', #69, 1000.000000000000000 ) ;
#96 = APPLICATION_PROTOCOL_DEFINITION ( 'draft international standard', 'automotive_design', 1998, #64 ) ;
#97 = DIRECTION ( 'NONE',  ( 0.0000000000000000000, 0.0000000000000000000, 1.000000000000000000 ) ) ;
#98 = EDGE_CURVE ( 'NONE', #108, #107, #112, .T. ) ;
#99 = LINE ( 'NONE', #41, #138 ) ;
#100 = ORIENTED_EDGE ( 'NONE', *, *, #66, .T. ) ;
#101 = DIRECTION ( 'NONE',  ( -0.0000000000000000000, -1.000000000000000000, -0.0000000000000000000 ) ) ;
#102 = VECTOR ( 'NONE', #22, 1000.000000000000000 ) ;
#103 = CARTESIAN_POINT ( 'NONE',  ( 4.455204334851265100, 9.000000000000000000, -3.500000000000001800 ) ) ;
#104 = AXIS2_PLACEMENT_3D ( 'NONE', #79, #125, #124 ) ;
#105 = CARTESIAN_POINT ( 'NONE',  ( 0.0000000000000000000, 0.0000000000000000000, 0.0000000000000000000 ) ) ;
#106 = PLANE ( 'NONE',  #10 ) ;
#107 = VERTEX_POINT ( 'NONE', #174 ) ;
#108 = VERTEX_POINT ( 'NONE', #8 ) ;
#109 = EDGE_CURVE ( 'NONE', #68, #175, #35, .T. ) ;
#110 = ORIENTED_EDGE ( 'NONE', *, *, #40, .F. ) ;
#111 = PLANE ( 'NONE',  #157 ) ;
#112 = LINE ( 'NONE', #169, #56 ) ;
#113 = LINE ( 'NONE', #143, #165 ) ;
#114 = CARTESIAN_POINT ( 'NONE',  ( 4.455204334851265100, 0.0000000000000000000, -3.500000000000001800 ) ) ;
#115 = ORIENTED_EDGE ( 'NONE', *, *, #40, .T. ) ;
#116 = VECTOR ( 'NONE', #32, 1000.000000000000000 ) ;
#117 = PRODUCT_DEFINITION_FORMATION_WITH_SPECIFIED_SOURCE ( 'ÈÎºÎ', '', #78, .NOT_KNOWN. ) ;
#118 = CARTESIAN_POINT ( 'NONE',  ( 4.355204334851265500, 0.0000000000000000000, 4.286263797015675000E-017 ) ) ;
#119 = ORIENTED_EDGE ( 'NONE', *, *, #147, .T. ) ;
#120 =( GEOMETRIC_REPRESENTATION_CONTEXT ( 3 ) GLOBAL_UNCERTAINTY_ASSIGNED_CONTEXT ( ( #196 ) ) GLOBAL_UNIT_ASSIGNED_CONTEXT ( ( #13, #188, #75 ) ) REPRESENTATION_CONTEXT ( 'NONE', 'WORKASPACE' ) );
#121 = FACE_OUTER_BOUND ( 'NONE', #134, .T. ) ;
#122 = CARTESIAN_POINT ( 'NONE',  ( 2.418712661747558300, 0.0000000000000000000, -3.500000000000000000 ) ) ;
#123 = EDGE_CURVE ( 'NONE', #107, #82, #80, .T. ) ;
#124 = DIRECTION ( 'NONE',  ( 0.0000000000000000000, 0.0000000000000000000, 1.000000000000000000 ) ) ;
#125 = DIRECTION ( 'NONE',  ( 0.0000000000000000000, 1.000000000000000000, 0.0000000000000000000 ) ) ;
#126 = STYLED_ITEM ( 'NONE', ( #16 ), #201 ) ;
#127 = LINE ( 'NONE', #4, #160 ) ;
#128 = FILL_AREA_STYLE_COLOUR ( '', #15 ) ;
#129 = DIRECTION ( 'NONE',  ( 8.518195772109438900E-016, -0.0000000000000000000, 1.000000000000000000 ) ) ;
#130 = EDGE_CURVE ( 'NONE', #144, #108, #113, .T. ) ;
#131 = SURFACE_STYLE_USAGE ( .BOTH. , #89 ) ;
#132 = ORIENTED_EDGE ( 'NONE', *, *, #98, .T. ) ;
#133 = DIRECTION ( 'NONE',  ( 0.0000000000000000000, -0.0000000000000000000, 1.000000000000000000 ) ) ;
#134 = EDGE_LOOP ( 'NONE', ( #119, #11, #171, #135 ) ) ;
#135 = ORIENTED_EDGE ( 'NONE', *, *, #74, .T. ) ;
#136 = SURFACE_STYLE_FILL_AREA ( #33 ) ;
#137 = PLANE ( 'NONE',  #183 ) ;
#138 = VECTOR ( 'NONE', #27, 1000.000000000000000 ) ;
#139 = CARTESIAN_POINT ( 'NONE',  ( 2.418712661747558300, 9.000000000000000000, 3.500000000000000000 ) ) ;
#140 = PRODUCT_RELATED_PRODUCT_CATEGORY ( 'part', '', ( #78 ) ) ;
#141 = DIRECTION ( 'NONE',  ( 0.0000000000000000000, -0.0000000000000000000, 1.000000000000000000 ) ) ;
#142 = FACE_OUTER_BOUND ( 'NONE', #73, .T. ) ;
#143 = CARTESIAN_POINT ( 'NONE',  ( 2.418712661747558300, 9.000000000000000000, 3.500000000000000000 ) ) ;
#144 = VERTEX_POINT ( 'NONE', #48 ) ;
#145 = CARTESIAN_POINT ( 'NONE',  ( 2.418712661747558300, 9.000000000000000000, -3.500000000000000000 ) ) ;
#146 = EDGE_LOOP ( 'NONE', ( #115, #31, #12, #199 ) ) ;
#147 = EDGE_CURVE ( 'NONE', #68, #144, #70, .T. ) ;
#148 = DIRECTION ( 'NONE',  ( 0.0000000000000000000, 0.0000000000000000000, 1.000000000000000000 ) ) ;
#149 = EDGE_LOOP ( 'NONE', ( #37, #54, #25, #132 ) ) ;
#150 = ADVANCED_FACE ( 'NONE', ( #47 ), #91, .T. ) ;
#151 = ORIENTED_EDGE ( 'NONE', *, *, #74, .F. ) ;
#152 = DIRECTION ( 'NONE',  ( -1.000000000000000000, -0.0000000000000000000, 8.518195772109438900E-016 ) ) ;
#153 = CARTESIAN_POINT ( 'NONE',  ( 4.455204334851265100, 9.000000000000000000, -3.500000000000001800 ) ) ;
#154 = CARTESIAN_POINT ( 'NONE',  ( 4.355204334851265500, 0.0000000000000000000, 4.286263797015675000E-017 ) ) ;
#155 = ORIENTED_EDGE ( 'NONE', *, *, #190, .F. ) ;
#156 = EDGE_LOOP ( 'NONE', ( #59, #94, #151, #100 ) ) ;
#157 = AXIS2_PLACEMENT_3D ( 'NONE', #154, #46, #141 ) ;
#158 = SURFACE_STYLE_USAGE ( .BOTH. , #38 ) ;
#159 = ADVANCED_FACE ( 'NONE', ( #60 ), #111, .F. ) ;
#160 = VECTOR ( 'NONE', #164, 1000.000000000000000 ) ;
#161 =( NAMED_UNIT ( * ) SI_UNIT ( $, .STERADIAN. ) SOLID_ANGLE_UNIT ( ) );
#162 = AXIS2_PLACEMENT_3D ( 'NONE', #14, #52, #17 ) ;
#163 = LINE ( 'NONE', #29, #90 ) ;
#164 = DIRECTION ( 'NONE',  ( -2.478176394252581100E-016, -0.0000000000000000000, -1.000000000000000000 ) ) ;
#165 = VECTOR ( 'NONE', #39, 1000.000000000000000 ) ;
#166 = MECHANICAL_DESIGN_GEOMETRIC_PRESENTATION_REPRESENTATION (  '', ( #126 ), #49 ) ;
#167 = PLANE ( 'NONE',  #45 ) ;
#168 = ORIENTED_EDGE ( 'NONE', *, *, #98, .F. ) ;
#169 = CARTESIAN_POINT ( 'NONE',  ( 4.455204334851266900, 9.000000000000000000, 3.500000000000000000 ) ) ;
#170 = AXIS2_PLACEMENT_3D ( 'NONE', #105, #148, #87 ) ;
#171 = ORIENTED_EDGE ( 'NONE', *, *, #204, .T. ) ;
#172 = FILL_AREA_STYLE_COLOUR ( '', #65 ) ;
#173 = PRODUCT_DEFINITION_SHAPE ( 'NONE', 'NONE',  #7 ) ;
#174 = CARTESIAN_POINT ( 'NONE',  ( 4.455204334851266900, 0.0000000000000000000, 3.500000000000000000 ) ) ;
#175 = VERTEX_POINT ( 'NONE', #122 ) ;
#176 = CARTESIAN_POINT ( 'NONE',  ( 2.418712661747558300, 9.000000000000000000, -3.500000000000000000 ) ) ;
#177 =( LENGTH_UNIT ( ) NAMED_UNIT ( * ) SI_UNIT ( .MILLI., .METRE. ) );
#178 = LINE ( 'NONE', #19, #71 ) ;
#179 =( NAMED_UNIT ( * ) PLANE_ANGLE_UNIT ( ) SI_UNIT ( $, .RADIAN. ) );
#180 = VERTEX_POINT ( 'NONE', #103 ) ;
#181 = CARTESIAN_POINT ( 'NONE',  ( 4.455204334851265100, 0.0000000000000000000, -3.500000000000001800 ) ) ;
#182 = SHAPE_DEFINITION_REPRESENTATION ( #173, #201 ) ;
#183 = AXIS2_PLACEMENT_3D ( 'NONE', #153, #202, #18 ) ;
#184 = CARTESIAN_POINT ( 'NONE',  ( 2.418712661747558300, 9.000000000000000000, -3.500000000000000000 ) ) ;
#185 =( NAMED_UNIT ( * ) SI_UNIT ( $, .STERADIAN. ) SOLID_ANGLE_UNIT ( ) );
#186 =( NAMED_UNIT ( * ) PLANE_ANGLE_UNIT ( ) SI_UNIT ( $, .RADIAN. ) );
#187 = SURFACE_STYLE_FILL_AREA ( #62 ) ;
#188 =( NAMED_UNIT ( * ) PLANE_ANGLE_UNIT ( ) SI_UNIT ( $, .RADIAN. ) );
#189 = APPLICATION_PROTOCOL_DEFINITION ( 'draft international standard', 'automotive_design', 1998, #195 ) ;
#190 = EDGE_CURVE ( 'NONE', #1, #107, #178, .T. ) ;
#191 = PRESENTATION_STYLE_ASSIGNMENT (( #158 ) ) ;
#192 = ORIENTED_EDGE ( 'NONE', *, *, #53, .T. ) ;
#193 = ADVANCED_FACE ( 'NONE', ( #55 ), #137, .F. ) ;
#194 = UNCERTAINTY_MEASURE_WITH_UNIT (LENGTH_MEASURE( 1.000000000000000100E-005 ), #34, 'distance_accuracy_value', 'NONE');
#195 = APPLICATION_CONTEXT ( 'automotive_design' ) ;
#196 = UNCERTAINTY_MEASURE_WITH_UNIT (LENGTH_MEASURE( 1.000000000000000100E-005 ), #13, 'distance_accuracy_value', 'NONE');
#197 = PRESENTATION_LAYER_ASSIGNMENT (  '', '', ( #3 ) ) ;
#198 = DIRECTION ( 'NONE',  ( 0.0000000000000000000, 1.000000000000000000, 0.0000000000000000000 ) ) ;
#199 = ORIENTED_EDGE ( 'NONE', *, *, #109, .T. ) ;
#200 = PRODUCT_CONTEXT ( 'NONE', #195, 'mechanical' ) ;
#201 = ADVANCED_BREP_SHAPE_REPRESENTATION ( '155006', ( #24, #170 ), #120 ) ;
#202 = DIRECTION ( 'NONE',  ( -1.000000000000000000, 0.0000000000000000000, 2.478176394252581100E-016 ) ) ;
#203 = DIRECTION ( 'NONE',  ( 1.000000000000000000, 0.0000000000000000000, 0.0000000000000000000 ) ) ;
#204 = EDGE_CURVE ( 'NONE', #108, #180, #127, .T. ) ;
ENDSEC;
END-ISO-10303-21;
