ISO-10303-21;
HEADER;
FILE_DESCRIPTION (( 'STEP AP214' ),
    '1' );
FILE_NAME ('155012.STEP',
    '2019-06-17T01:41:49',
    ( 'user' ),
    ( 'Î¢ÈíÖÐ¹ú' ),
    'SwSTEP 2.0',
    'SolidWorks 2016',
    '' );
FILE_SCHEMA (( 'AUTOMOTIVE_DESIGN' ));
ENDSEC;

DATA;
#1 = DIRECTION ( 'NONE',  ( 0.0000000000000000000, 1.000000000000000000, 0.0000000000000000000 ) ) ;
#2 = ORIENTED_EDGE ( 'NONE', *, *, #123, .F. ) ;
#3 = PRODUCT_CONTEXT ( 'NONE', #176, 'mechanical' ) ;
#4 = ORIENTED_EDGE ( 'NONE', *, *, #163, .F. ) ;
#5 = CIRCLE ( 'NONE', #198, 6.560000000000013800 ) ;
#6 = LINE ( 'NONE', #37, #76 ) ;
#7 = AXIS2_PLACEMENT_3D ( 'NONE', #160, #105, #91 ) ;
#8 = ORIENTED_EDGE ( 'NONE', *, *, #166, .T. ) ;
#9 = VERTEX_POINT ( 'NONE', #153 ) ;
#10 = DIRECTION ( 'NONE',  ( -0.0000000000000000000, -1.000000000000000000, -0.0000000000000000000 ) ) ;
#11 = CARTESIAN_POINT ( 'NONE',  ( 0.1086056959403326100, 12.00000000000000000, -5.000000000000000000 ) ) ;
#12 = FILL_AREA_STYLE ('',( #104 ) ) ;
#13 = CARTESIAN_POINT ( 'NONE',  ( 0.1086056959403326100, 0.0000000000000000000, 5.000000000000000000 ) ) ;
#14 = LINE ( 'NONE', #179, #165 ) ;
#15 = CARTESIAN_POINT ( 'NONE',  ( 2.105204334851263200, 0.0000000000000000000, -5.000000000000000000 ) ) ;
#16 = CARTESIAN_POINT ( 'NONE',  ( 4.355204334851265500, 0.0000000000000000000, 4.286263797015675000E-017 ) ) ;
#17 = ORIENTED_EDGE ( 'NONE', *, *, #82, .F. ) ;
#18 = CARTESIAN_POINT ( 'NONE',  ( 4.355204334851265500, 12.00000000000000000, 4.286263797015675000E-017 ) ) ;
#19 = APPLICATION_PROTOCOL_DEFINITION ( 'draft international standard', 'automotive_design', 1998, #125 ) ;
#20 = FACE_OUTER_BOUND ( 'NONE', #87, .T. ) ;
#21 = AXIS2_PLACEMENT_3D ( 'NONE', #16, #1, #190 ) ;
#22 = DIRECTION ( 'NONE',  ( -3.035766082959412400E-016, -0.0000000000000000000, -1.000000000000000000 ) ) ;
#23 = LINE ( 'NONE', #189, #65 ) ;
#24 = SURFACE_SIDE_STYLE ('',( #196 ) ) ;
#25 =( NAMED_UNIT ( * ) SI_UNIT ( $, .STERADIAN. ) SOLID_ANGLE_UNIT ( ) );
#26 = CARTESIAN_POINT ( 'NONE',  ( 0.1086056959403326100, 12.00000000000000000, -5.000000000000000000 ) ) ;
#27 = PLANE ( 'NONE',  #54 ) ;
#28 = ORIENTED_EDGE ( 'NONE', *, *, #63, .T. ) ;
#29 = EDGE_CURVE ( 'NONE', #120, #84, #49, .T. ) ;
#30 = DIRECTION ( 'NONE',  ( 0.0000000000000000000, 0.0000000000000000000, -1.000000000000000000 ) ) ;
#31 = CARTESIAN_POINT ( 'NONE',  ( 0.1086056959403326100, 0.0000000000000000000, -5.000000000000000000 ) ) ;
#32 = COLOUR_RGB ( '',1.000000000000000000, 1.000000000000000000, 1.000000000000000000 ) ;
#33 = ADVANCED_BREP_SHAPE_REPRESENTATION ( '155012', ( #132, #7 ), #55 ) ;
#34 = VERTEX_POINT ( 'NONE', #41 ) ;
#35 = ADVANCED_FACE ( 'NONE', ( #187 ), #27, .T. ) ;
#36 = VERTEX_POINT ( 'NONE', #114 ) ;
#37 = CARTESIAN_POINT ( 'NONE',  ( 2.105204334851266300, 12.00000000000000000, 5.000000000000000000 ) ) ;
#38 = SURFACE_STYLE_USAGE ( .BOTH. , #24 ) ;
#39 = AXIS2_PLACEMENT_3D ( 'NONE', #18, #56, #146 ) ;
#40 = CLOSED_SHELL ( 'NONE', ( #161, #151, #141, #86, #35, #121 ) ) ;
#41 = CARTESIAN_POINT ( 'NONE',  ( 0.1086056959403326100, 12.00000000000000000, 5.000000000000000000 ) ) ;
#42 = ORIENTED_EDGE ( 'NONE', *, *, #157, .F. ) ;
#43 = PRESENTATION_STYLE_ASSIGNMENT (( #38 ) ) ;
#44 = ORIENTED_EDGE ( 'NONE', *, *, #186, .T. ) ;
#45 = SHAPE_DEFINITION_REPRESENTATION ( #57, #33 ) ;
#46 = DIRECTION ( 'NONE',  ( 0.0000000000000000000, -0.0000000000000000000, 1.000000000000000000 ) ) ;
#47 = CIRCLE ( 'NONE', #103, 6.560000000000013800 ) ;
#48 = ORIENTED_EDGE ( 'NONE', *, *, #157, .T. ) ;
#49 = LINE ( 'NONE', #171, #52 ) ;
#50 = PRESENTATION_LAYER_ASSIGNMENT (  '', '', ( #133 ) ) ;
#51 = EDGE_LOOP ( 'NONE', ( #28, #2, #124, #44 ) ) ;
#52 = VECTOR ( 'NONE', #106, 1000.000000000000000 ) ;
#53 = PRODUCT_DEFINITION_CONTEXT ( 'detailed design', #125, 'design' ) ;
#54 = AXIS2_PLACEMENT_3D ( 'NONE', #92, #72, #46 ) ;
#55 =( GEOMETRIC_REPRESENTATION_CONTEXT ( 3 ) GLOBAL_UNCERTAINTY_ASSIGNED_CONTEXT ( ( #68 ) ) GLOBAL_UNIT_ASSIGNED_CONTEXT ( ( #117, #70, #25 ) ) REPRESENTATION_CONTEXT ( 'NONE', 'WORKASPACE' ) );
#56 = DIRECTION ( 'NONE',  ( -0.0000000000000000000, -1.000000000000000000, -0.0000000000000000000 ) ) ;
#57 = PRODUCT_DEFINITION_SHAPE ( 'NONE', 'NONE',  #158 ) ;
#58 = PLANE ( 'NONE',  #145 ) ;
#59 = DIRECTION ( 'NONE',  ( 0.0000000000000000000, 0.0000000000000000000, 1.000000000000000000 ) ) ;
#60 = DIRECTION ( 'NONE',  ( -1.000000000000000000, 0.0000000000000000000, -0.0000000000000000000 ) ) ;
#61 = DIRECTION ( 'NONE',  ( 0.0000000000000000000, 1.000000000000000000, 0.0000000000000000000 ) ) ;
#62 = ORIENTED_EDGE ( 'NONE', *, *, #163, .T. ) ;
#63 = EDGE_CURVE ( 'NONE', #84, #138, #66, .T. ) ;
#64 = UNCERTAINTY_MEASURE_WITH_UNIT (LENGTH_MEASURE( 1.000000000000000100E-005 ), #109, 'distance_accuracy_value', 'NONE');
#65 = VECTOR ( 'NONE', #94, 1000.000000000000000 ) ;
#66 = LINE ( 'NONE', #15, #100 ) ;
#67 = FACE_OUTER_BOUND ( 'NONE', #51, .T. ) ;
#68 = UNCERTAINTY_MEASURE_WITH_UNIT (LENGTH_MEASURE( 1.000000000000000100E-005 ), #117, 'distance_accuracy_value', 'NONE');
#69 = DIRECTION ( 'NONE',  ( 0.0000000000000000000, 0.0000000000000000000, 1.000000000000000000 ) ) ;
#70 =( NAMED_UNIT ( * ) PLANE_ANGLE_UNIT ( ) SI_UNIT ( $, .RADIAN. ) );
#71 = LINE ( 'NONE', #11, #183 ) ;
#72 = DIRECTION ( 'NONE',  ( 0.0000000000000000000, 1.000000000000000000, 0.0000000000000000000 ) ) ;
#73 = DIRECTION ( 'NONE',  ( -0.0000000000000000000, -1.000000000000000000, -0.0000000000000000000 ) ) ;
#74 = FILL_AREA_STYLE_COLOUR ( '', #95 ) ;
#75 = SURFACE_STYLE_USAGE ( .BOTH. , #99 ) ;
#76 = VECTOR ( 'NONE', #131, 1000.000000000000000 ) ;
#77 = PRESENTATION_STYLE_ASSIGNMENT (( #75 ) ) ;
#78 = PLANE ( 'NONE',  #108 ) ;
#79 = DIRECTION ( 'NONE',  ( 1.000000000000000000, 0.0000000000000000000, 0.0000000000000000000 ) ) ;
#80 = VECTOR ( 'NONE', #73, 1000.000000000000000 ) ;
#81 = VECTOR ( 'NONE', #10, 1000.000000000000000 ) ;
#82 = EDGE_CURVE ( 'NONE', #9, #150, #177, .T. ) ;
#83 = ORIENTED_EDGE ( 'NONE', *, *, #82, .T. ) ;
#84 = VERTEX_POINT ( 'NONE', #115 ) ;
#85 = EDGE_LOOP ( 'NONE', ( #122, #199, #201, #83 ) ) ;
#86 = ADVANCED_FACE ( 'NONE', ( #162 ), #194, .F. ) ;
#87 = EDGE_LOOP ( 'NONE', ( #155, #42, #116, #169 ) ) ;
#88 = FACE_OUTER_BOUND ( 'NONE', #107, .T. ) ;
#89 = ORIENTED_EDGE ( 'NONE', *, *, #123, .T. ) ;
#90 =( NAMED_UNIT ( * ) PLANE_ANGLE_UNIT ( ) SI_UNIT ( $, .RADIAN. ) );
#91 = DIRECTION ( 'NONE',  ( 1.000000000000000000, 0.0000000000000000000, 0.0000000000000000000 ) ) ;
#92 = CARTESIAN_POINT ( 'NONE',  ( 4.355204334851265500, 12.00000000000000000, 4.286263797015675000E-017 ) ) ;
#93 = EDGE_CURVE ( 'NONE', #174, #36, #191, .T. ) ;
#94 = DIRECTION ( 'NONE',  ( -0.0000000000000000000, -1.000000000000000000, -0.0000000000000000000 ) ) ;
#95 = COLOUR_RGB ( '',1.000000000000000000, 1.000000000000000000, 1.000000000000000000 ) ;
#96 = ORIENTED_EDGE ( 'NONE', *, *, #166, .F. ) ;
#97 = PRODUCT_RELATED_PRODUCT_CATEGORY ( 'part', '', ( #139 ) ) ;
#98 = DIRECTION ( 'NONE',  ( -3.035766082959412400E-016, -0.0000000000000000000, -1.000000000000000000 ) ) ;
#99 = SURFACE_SIDE_STYLE ('',( #156 ) ) ;
#100 = VECTOR ( 'NONE', #22, 1000.000000000000000 ) ;
#101 = LINE ( 'NONE', #204, #81 ) ;
#102 = ORIENTED_EDGE ( 'NONE', *, *, #188, .T. ) ;
#103 = AXIS2_PLACEMENT_3D ( 'NONE', #118, #61, #59 ) ;
#104 = FILL_AREA_STYLE_COLOUR ( '', #32 ) ;
#105 = DIRECTION ( 'NONE',  ( 0.0000000000000000000, 0.0000000000000000000, 1.000000000000000000 ) ) ;
#106 = DIRECTION ( 'NONE',  ( 1.000000000000000000, 0.0000000000000000000, 0.0000000000000000000 ) ) ;
#107 = EDGE_LOOP ( 'NONE', ( #149, #142, #4, #102 ) ) ;
#108 = AXIS2_PLACEMENT_3D ( 'NONE', #178, #192, #180 ) ;
#109 =( LENGTH_UNIT ( ) NAMED_UNIT ( * ) SI_UNIT ( .MILLI., .METRE. ) );
#110 =( LENGTH_UNIT ( ) NAMED_UNIT ( * ) SI_UNIT ( .MILLI., .METRE. ) );
#111 =( NAMED_UNIT ( * ) SI_UNIT ( $, .STERADIAN. ) SOLID_ANGLE_UNIT ( ) );
#112 = LINE ( 'NONE', #184, #168 ) ;
#113 = EDGE_LOOP ( 'NONE', ( #167, #62, #129, #8 ) ) ;
#114 = CARTESIAN_POINT ( 'NONE',  ( 2.105204334851263200, 12.00000000000000000, -5.000000000000000000 ) ) ;
#115 = CARTESIAN_POINT ( 'NONE',  ( 2.105204334851266300, 0.0000000000000000000, 5.000000000000000000 ) ) ;
#116 = ORIENTED_EDGE ( 'NONE', *, *, #63, .F. ) ;
#117 =( LENGTH_UNIT ( ) NAMED_UNIT ( * ) SI_UNIT ( .MILLI., .METRE. ) );
#118 = CARTESIAN_POINT ( 'NONE',  ( 4.355204334851265500, 12.00000000000000000, 4.286263797015675000E-017 ) ) ;
#119 =( NAMED_UNIT ( * ) PLANE_ANGLE_UNIT ( ) SI_UNIT ( $, .RADIAN. ) );
#120 = VERTEX_POINT ( 'NONE', #13 ) ;
#121 = ADVANCED_FACE ( 'NONE', ( #20 ), #147, .F. ) ;
#122 = ORIENTED_EDGE ( 'NONE', *, *, #148, .T. ) ;
#123 = EDGE_CURVE ( 'NONE', #36, #138, #101, .T. ) ;
#124 = ORIENTED_EDGE ( 'NONE', *, *, #93, .F. ) ;
#125 = APPLICATION_CONTEXT ( 'automotive_design' ) ;
#126 = CARTESIAN_POINT ( 'NONE',  ( 4.355204334851265500, 0.0000000000000000000, 4.286263797015675000E-017 ) ) ;
#127 = PRODUCT_DEFINITION_FORMATION_WITH_SPECIFIED_SOURCE ( 'ÈÎºÎ', '', #139, .NOT_KNOWN. ) ;
#128 = CARTESIAN_POINT ( 'NONE',  ( 0.1086056959403326100, 12.00000000000000000, 5.000000000000000000 ) ) ;
#129 = ORIENTED_EDGE ( 'NONE', *, *, #93, .T. ) ;
#130 = DIRECTION ( 'NONE',  ( -1.000000000000000000, -0.0000000000000000000, -0.0000000000000000000 ) ) ;
#131 = DIRECTION ( 'NONE',  ( -0.0000000000000000000, -1.000000000000000000, -0.0000000000000000000 ) ) ;
#132 = MANIFOLD_SOLID_BREP ( 'Í¹Ì¨-À­Éì1', #40 ) ;
#133 = STYLED_ITEM ( 'NONE', ( #43 ), #132 ) ;
#134 = DIRECTION ( 'NONE',  ( 1.000000000000000000, 0.0000000000000000000, -0.0000000000000000000 ) ) ;
#135 = MECHANICAL_DESIGN_GEOMETRIC_PRESENTATION_REPRESENTATION (  '', ( #182 ), #159 ) ;
#136 = CARTESIAN_POINT ( 'NONE',  ( 0.1086056959403326100, 12.00000000000000000, -5.000000000000000000 ) ) ;
#137 = VECTOR ( 'NONE', #98, 1000.000000000000000 ) ;
#138 = VERTEX_POINT ( 'NONE', #195 ) ;
#139 = PRODUCT ( '155012', '155012', '', ( #3 ) ) ;
#140 = FACE_OUTER_BOUND ( 'NONE', #85, .T. ) ;
#141 = ADVANCED_FACE ( 'NONE', ( #67 ), #78, .F. ) ;
#142 = ORIENTED_EDGE ( 'NONE', *, *, #186, .F. ) ;
#143 = DIRECTION ( 'NONE',  ( -1.000000000000000000, -0.0000000000000000000, -0.0000000000000000000 ) ) ;
#144 = EDGE_CURVE ( 'NONE', #9, #34, #47, .T. ) ;
#145 = AXIS2_PLACEMENT_3D ( 'NONE', #128, #30, #60 ) ;
#146 = DIRECTION ( 'NONE',  ( 0.0000000000000000000, 0.0000000000000000000, -1.000000000000000000 ) ) ;
#147 = PLANE ( 'NONE',  #21 ) ;
#148 = EDGE_CURVE ( 'NONE', #150, #120, #5, .T. ) ;
#149 = ORIENTED_EDGE ( 'NONE', *, *, #29, .T. ) ;
#150 = VERTEX_POINT ( 'NONE', #31 ) ;
#151 = ADVANCED_FACE ( 'NONE', ( #88 ), #58, .F. ) ;
#152 = MECHANICAL_DESIGN_GEOMETRIC_PRESENTATION_REPRESENTATION (  '', ( #133 ), #203 ) ;
#153 = CARTESIAN_POINT ( 'NONE',  ( 0.1086056959403326100, 12.00000000000000000, -5.000000000000000000 ) ) ;
#154 = APPLICATION_PROTOCOL_DEFINITION ( 'draft international standard', 'automotive_design', 1998, #176 ) ;
#155 = ORIENTED_EDGE ( 'NONE', *, *, #148, .F. ) ;
#156 = SURFACE_STYLE_FILL_AREA ( #12 ) ;
#157 = EDGE_CURVE ( 'NONE', #138, #150, #112, .T. ) ;
#158 = PRODUCT_DEFINITION ( 'Î´Öª', '', #127, #53 ) ;
#159 =( GEOMETRIC_REPRESENTATION_CONTEXT ( 3 ) GLOBAL_UNCERTAINTY_ASSIGNED_CONTEXT ( ( #181 ) ) GLOBAL_UNIT_ASSIGNED_CONTEXT ( ( #110, #119, #111 ) ) REPRESENTATION_CONTEXT ( 'NONE', 'WORKASPACE' ) );
#160 = CARTESIAN_POINT ( 'NONE',  ( 0.0000000000000000000, 0.0000000000000000000, 0.0000000000000000000 ) ) ;
#161 = ADVANCED_FACE ( 'NONE', ( #140 ), #193, .T. ) ;
#162 = FACE_OUTER_BOUND ( 'NONE', #197, .T. ) ;
#163 = EDGE_CURVE ( 'NONE', #34, #174, #14, .T. ) ;
#164 = PRESENTATION_LAYER_ASSIGNMENT (  '', '', ( #182 ) ) ;
#165 = VECTOR ( 'NONE', #79, 1000.000000000000000 ) ;
#166 = EDGE_CURVE ( 'NONE', #36, #9, #71, .T. ) ;
#167 = ORIENTED_EDGE ( 'NONE', *, *, #144, .T. ) ;
#168 = VECTOR ( 'NONE', #130, 1000.000000000000000 ) ;
#169 = ORIENTED_EDGE ( 'NONE', *, *, #29, .F. ) ;
#170 = DIRECTION ( 'NONE',  ( 0.0000000000000000000, 0.0000000000000000000, 1.000000000000000000 ) ) ;
#171 = CARTESIAN_POINT ( 'NONE',  ( 0.1086056959403326100, 0.0000000000000000000, 5.000000000000000000 ) ) ;
#172 = CARTESIAN_POINT ( 'NONE',  ( 2.105204334851263200, 12.00000000000000000, -5.000000000000000000 ) ) ;
#173 = AXIS2_PLACEMENT_3D ( 'NONE', #26, #69, #134 ) ;
#174 = VERTEX_POINT ( 'NONE', #175 ) ;
#175 = CARTESIAN_POINT ( 'NONE',  ( 2.105204334851266300, 12.00000000000000000, 5.000000000000000000 ) ) ;
#176 = APPLICATION_CONTEXT ( 'automotive_design' ) ;
#177 = LINE ( 'NONE', #136, #80 ) ;
#178 = CARTESIAN_POINT ( 'NONE',  ( 2.105204334851263200, 12.00000000000000000, -5.000000000000000000 ) ) ;
#179 = CARTESIAN_POINT ( 'NONE',  ( 0.1086056959403326100, 12.00000000000000000, 5.000000000000000000 ) ) ;
#180 = DIRECTION ( 'NONE',  ( 3.035766082959412400E-016, 0.0000000000000000000, 1.000000000000000000 ) ) ;
#181 = UNCERTAINTY_MEASURE_WITH_UNIT (LENGTH_MEASURE( 1.000000000000000100E-005 ), #110, 'distance_accuracy_value', 'NONE');
#182 = STYLED_ITEM ( 'NONE', ( #77 ), #33 ) ;
#183 = VECTOR ( 'NONE', #143, 1000.000000000000000 ) ;
#184 = CARTESIAN_POINT ( 'NONE',  ( 0.1086056959403326100, 0.0000000000000000000, -5.000000000000000000 ) ) ;
#185 =( NAMED_UNIT ( * ) SI_UNIT ( $, .STERADIAN. ) SOLID_ANGLE_UNIT ( ) );
#186 = EDGE_CURVE ( 'NONE', #174, #84, #6, .T. ) ;
#187 = FACE_OUTER_BOUND ( 'NONE', #113, .T. ) ;
#188 = EDGE_CURVE ( 'NONE', #34, #120, #23, .T. ) ;
#189 = CARTESIAN_POINT ( 'NONE',  ( 0.1086056959403326100, 12.00000000000000000, 5.000000000000000000 ) ) ;
#190 = DIRECTION ( 'NONE',  ( 0.0000000000000000000, -0.0000000000000000000, 1.000000000000000000 ) ) ;
#191 = LINE ( 'NONE', #172, #137 ) ;
#192 = DIRECTION ( 'NONE',  ( -1.000000000000000000, 0.0000000000000000000, 3.035766082959412400E-016 ) ) ;
#193 = CYLINDRICAL_SURFACE ( 'NONE', #39, 6.560000000000013800 ) ;
#194 = PLANE ( 'NONE',  #173 ) ;
#195 = CARTESIAN_POINT ( 'NONE',  ( 2.105204334851263200, 0.0000000000000000000, -5.000000000000000000 ) ) ;
#196 = SURFACE_STYLE_FILL_AREA ( #200 ) ;
#197 = EDGE_LOOP ( 'NONE', ( #48, #17, #96, #89 ) ) ;
#198 = AXIS2_PLACEMENT_3D ( 'NONE', #126, #202, #170 ) ;
#199 = ORIENTED_EDGE ( 'NONE', *, *, #188, .F. ) ;
#200 = FILL_AREA_STYLE ('',( #74 ) ) ;
#201 = ORIENTED_EDGE ( 'NONE', *, *, #144, .F. ) ;
#202 = DIRECTION ( 'NONE',  ( 0.0000000000000000000, 1.000000000000000000, 0.0000000000000000000 ) ) ;
#203 =( GEOMETRIC_REPRESENTATION_CONTEXT ( 3 ) GLOBAL_UNCERTAINTY_ASSIGNED_CONTEXT ( ( #64 ) ) GLOBAL_UNIT_ASSIGNED_CONTEXT ( ( #109, #90, #185 ) ) REPRESENTATION_CONTEXT ( 'NONE', 'WORKASPACE' ) );
#204 = CARTESIAN_POINT ( 'NONE',  ( 2.105204334851263200, 12.00000000000000000, -5.000000000000000000 ) ) ;
ENDSEC;
END-ISO-10303-21;
