ISO-10303-21;
HEADER;
FILE_DESCRIPTION (( 'STEP AP214' ),
    '1' );
FILE_NAME ('155038.STEP',
    '2019-06-17T07:37:05',
    ( 'user' ),
    ( 'Î¢ÈíÖÐ¹ú' ),
    'SwSTEP 2.0',
    'SolidWorks 2016',
    '' );
FILE_SCHEMA (( 'AUTOMOTIVE_DESIGN' ));
ENDSEC;

DATA;
#1 = DIRECTION ( 'NONE',  ( 1.000000000000000000, 0.0000000000000000000, 0.0000000000000000000 ) ) ;
#2 = DIRECTION ( 'NONE',  ( 0.0000000000000000000, 0.0000000000000000000, 1.000000000000000000 ) ) ;
#3 = CARTESIAN_POINT ( 'NONE',  ( -7.784775710873533100, 24.18099804381603200, 4.472247805447182100 ) ) ;
#4 = LINE ( 'NONE', #208, #215 ) ;
#5 = APPLICATION_PROTOCOL_DEFINITION ( 'draft international standard', 'automotive_design', 1998, #137 ) ;
#6 = CARTESIAN_POINT ( 'NONE',  ( -0.9056188999209791000, 8.401276632422492300, -11.81506768295658300 ) ) ;
#7 = CARTESIAN_POINT ( 'NONE',  ( -2.009855737516241800, 17.95246836990057200, 11.27222098194238800 ) ) ;
#8 = CARTESIAN_POINT ( 'NONE',  ( -6.654596805328910000, 1.998344469217676400, 6.792376110096642900 ) ) ;
#9 = CARTESIAN_POINT ( 'NONE',  ( -7.657099094575063000, 0.9517075878183864900, -4.803552693736532000 ) ) ;
#10 = CARTESIAN_POINT ( 'NONE',  ( -8.570953549855751400, 0.003974291431471180400, 0.5634083442298143400 ) ) ;
#11 = CARTESIAN_POINT ( 'NONE',  ( 0.3934333880308635300, 14.70332077013992500, -12.31071916551053700 ) ) ;
#12 = ADVANCED_BREP_SHAPE_REPRESENTATION ( '155038', ( #249, #211 ), #97 ) ;
#13 = CARTESIAN_POINT ( 'NONE',  ( -5.288360844750323900, 21.56114607061118300, -8.644383663103854000 ) ) ;
#14 = CARTESIAN_POINT ( 'NONE',  ( -7.311666308477994900, 1.311456995442970200, -5.590499222245978400 ) ) ;
#15 = PRESENTATION_LAYER_ASSIGNMENT (  '', '', ( #213 ) ) ;
#16 =( NAMED_UNIT ( * ) SI_UNIT ( $, .STERADIAN. ) SOLID_ANGLE_UNIT ( ) );
#17 = CARTESIAN_POINT ( 'NONE',  ( -2.029244429234928800, 7.024883523165677900, -11.26145688478927700 ) ) ;
#18 = PRODUCT_DEFINITION_CONTEXT ( 'detailed design', #137, 'design' ) ;
#19 = ADVANCED_FACE ( 'NONE', ( #39 ), #184, .T. ) ;
#20 = CARTESIAN_POINT ( 'NONE',  ( -6.461520254780253900, 22.79913546770301700, 7.095047629533968200 ) ) ;
#21 = CARTESIAN_POINT ( 'NONE',  ( -7.251592741349689700, 1.374109388676209200, 5.713708246330336100 ) ) ;
#22 = AXIS2_PLACEMENT_3D ( 'NONE', #48, #187, #93 ) ;
#23 = CARTESIAN_POINT ( 'NONE',  ( 0.9458505288480231200, 11.57783815909967200, 12.47359831782778400 ) ) ;
#24 = CARTESIAN_POINT ( 'NONE',  ( -8.571501468349044500, 0.003407211445560569600, -0.3736109084563136200 ) ) ;
#25 = VERTEX_POINT ( 'NONE', #72 ) ;
#26 = PLANE ( 'NONE',  #57 ) ;
#27 = CARTESIAN_POINT ( 'NONE',  ( -5.814065029703029600, 2.882243041960948800, -8.025269845866624500 ) ) ;
#28 = CARTESIAN_POINT ( 'NONE',  ( -8.471903930712370500, 24.89364958003238800, 1.863942456521807500 ) ) ;
#29 = CARTESIAN_POINT ( 'NONE',  ( -6.494988704706735800, 2.165721294186301100, -7.043914741199440500 ) ) ;
#30 = PRODUCT_DEFINITION ( 'Î´Öª', '', #69, #18 ) ;
#31 = UNCERTAINTY_MEASURE_WITH_UNIT (LENGTH_MEASURE( 1.000000000000000100E-005 ), #129, 'distance_accuracy_value', 'NONE');
#32 = ORIENTED_EDGE ( 'NONE', *, *, #158, .T. ) ;
#33 = EDGE_LOOP ( 'NONE', ( #169, #166, #105, #223 ) ) ;
#34 = CARTESIAN_POINT ( 'NONE',  ( -3.697008096064462500, 19.84282720166356000, -10.12291235838386100 ) ) ;
#35 = CARTESIAN_POINT ( 'NONE',  ( -0.3508739512178643000, 15.85706512182353100, -12.04671048563409000 ) ) ;
#36 =( LENGTH_UNIT ( ) NAMED_UNIT ( * ) SI_UNIT ( .MILLI., .METRE. ) );
#37 = AXIS2_PLACEMENT_3D ( 'NONE', #210, #104, #55 ) ;
#38 = CARTESIAN_POINT ( 'NONE',  ( -7.760227441105685700, 0.8445143883895751500, 4.538359350223685400 ) ) ;
#39 = FACE_OUTER_BOUND ( 'NONE', #175, .T. ) ;
#40 = CARTESIAN_POINT ( 'NONE',  ( -3.418220001892494400, 19.53635523433972300, -10.33815553510264000 ) ) ;
#41 = CARTESIAN_POINT ( 'NONE',  ( 1.048408302435615700, 12.02968226136324300, 12.50000000000000700 ) ) ;
#42 = CARTESIAN_POINT ( 'NONE',  ( -7.283142103000696600, 23.65879778533431800, -5.649400670172624000 ) ) ;
#43 = CARTESIAN_POINT ( 'NONE',  ( 0.6122416535426045100, 14.29932653611630200, -12.37760336662099200 ) ) ;
#44 = CARTESIAN_POINT ( 'NONE',  ( -8.392208814854219800, 0.1889363729310570600, -2.212819599177464600 ) ) ;
#45 = CARTESIAN_POINT ( 'NONE',  ( -0.08872175504748630600, 15.48455181432622000, 12.14500406086899200 ) ) ;
#46 = CARTESIAN_POINT ( 'NONE',  ( -0.8920203225758205300, 16.58123075564637400, 11.82106645048773400 ) ) ;
#47 = CARTESIAN_POINT ( 'NONE',  ( 1.022917799781243500, 12.96748111267437600, -12.49332220800304700 ) ) ;
#48 = CARTESIAN_POINT ( 'NONE',  ( 3.045204334851257000, 12.50000000000000000, -8.452139918100490900E-016 ) ) ;
#49 =( NAMED_UNIT ( * ) SI_UNIT ( $, .STERADIAN. ) SOLID_ANGLE_UNIT ( ) );
#50 = FILL_AREA_STYLE ('',( #154 ) ) ;
#51 = CARTESIAN_POINT ( 'NONE',  ( 1.048408302435615700, 12.50000000000000000, 12.50000000000000500 ) ) ;
#52 = CARTESIAN_POINT ( 'NONE',  ( -6.436375762791358900, 2.227269216613799100, 7.133323030601278700 ) ) ;
#53 = CARTESIAN_POINT ( 'NONE',  ( -7.788828897006214700, 24.18521076035574400, -4.461505555585672400 ) ) ;
#54 = VECTOR ( 'NONE', #84, 1000.000000000000000 ) ;
#55 = DIRECTION ( 'NONE',  ( -2.775557561562890400E-016, 0.0000000000000000000, -1.000000000000000000 ) ) ;
#56 = CARTESIAN_POINT ( 'NONE',  ( -8.061744811308338800, 24.46859331280628800, 3.633110216551330900 ) ) ;
#57 = AXIS2_PLACEMENT_3D ( 'NONE', #216, #183, #233 ) ;
#58 = CARTESIAN_POINT ( 'NONE',  ( 0.8616396910455073100, 13.64488886269606600, -12.44939314839540900 ) ) ;
#59 = CARTESIAN_POINT ( 'NONE',  ( -8.184530234045373800, 24.59589678916079700, -3.185000226497892900 ) ) ;
#60 = CARTESIAN_POINT ( 'NONE',  ( 1.048408302435619000, 12.50000000000000000, -12.50000000000000500 ) ) ;
#61 = CLOSED_SHELL ( 'NONE', ( #92, #194, #171, #19 ) ) ;
#62 = CARTESIAN_POINT ( 'NONE',  ( -7.088404928410247100, 23.45560486605816300, 6.033295600814379400 ) ) ;
#63 = CARTESIAN_POINT ( 'NONE',  ( -0.8906618980691767300, 16.57943941384690600, -11.82164514040252900 ) ) ;
#64 = CARTESIAN_POINT ( 'NONE',  ( -2.575910604852767800, 18.59768239303655700, -10.93706033817248400 ) ) ;
#65 = CARTESIAN_POINT ( 'NONE',  ( -8.576177413458665900, -0.001429283595188585000, -0.1370683594311364100 ) ) ;
#66 = CARTESIAN_POINT ( 'NONE',  ( 1.048408302435612600, 12.73630966659838900, -12.50000000000000400 ) ) ;
#67 = CARTESIAN_POINT ( 'NONE',  ( -3.434752618632468800, 5.445408893040513100, -10.32564854870570600 ) ) ;
#68 = EDGE_CURVE ( 'NONE', #132, #140, #71, .T. ) ;
#69 = PRODUCT_DEFINITION_FORMATION_WITH_SPECIFIED_SOURCE ( 'ÈÎºÎ', '', #125, .NOT_KNOWN. ) ;
#70 = SURFACE_STYLE_USAGE ( .BOTH. , #98 ) ;
#71 = B_SPLINE_CURVE_WITH_KNOTS ( 'NONE', 3,
 ( #60, #66, #47, #119, #58, #43, #11, #179, #35, #63, #149, #242, #64, #40, #34, #113, #130, #13, #165, #235, #90, #203, #42, #232, #53, #75, #59, #145, #80, #85, #251, #201, #28, #160, #56, #3, #205, #228, #62, #229, #20, #161, #226, #86, #241, #168, #220, #157, #7, #243, #46, #163, #45, #192, #202, #120, #182, #148 ),
 .UNSPECIFIED., .F., .F.,
 ( 4, 2, 2, 2, 2, 2, 2, 2, 2, 2, 2, 2, 2, 2, 2, 2, 2, 2, 2, 2, 2, 2, 2, 2, 2, 2, 2, 2, 4 ),
 ( -0.02214099750765625300, -0.02144868244478510500, -0.02075636738191395300, -0.01937173725617165000, -0.01798710713042935000, -0.01660247700468705400, -0.01383321675320245400, -0.01244858662746016000, -0.01106395650171786300, -0.008294696250233270600, -0.006910066124490977700, -0.005525435998748683100, -0.004140805873006386800, -0.002756175747264097400, -0.001371545621521804600, 1.308450422048829100E-005, 0.002782344755705070500, 0.004166974881447366900, 0.005551605007189663200, 0.006936235132931956000, 0.008320865258674248900, 0.01109012551015883800, 0.01247475563590113400, 0.01385938576164343100, 0.01662864601312800300, 0.01801327613887028500, 0.01939790626461257400, 0.02078253639035486400, 0.02216716651609713900 ),
 .UNSPECIFIED. ) ;
#72 = CARTESIAN_POINT ( 'NONE',  ( 3.045204334851253400, 12.50000000000000000, -12.50000000000000500 ) ) ;
#73 = EDGE_LOOP ( 'NONE', ( #150, #219 ) ) ;
#74 = MECHANICAL_DESIGN_GEOMETRIC_PRESENTATION_REPRESENTATION (  '', ( #180 ), #199 ) ;
#75 = CARTESIAN_POINT ( 'NONE',  ( -8.066606482610085400, 24.47363734887084200, -3.616792912813879400 ) ) ;
#76 = CARTESIAN_POINT ( 'NONE',  ( -7.812802919030000100, 0.7898780363981770000, -4.395756636692131500 ) ) ;
#77 = FILL_AREA_STYLE ('',( #217 ) ) ;
#78 = CARTESIAN_POINT ( 'NONE',  ( -8.435628845410240800, 0.1440008912727662700, 1.947433380015423100 ) ) ;
#79 = CARTESIAN_POINT ( 'NONE',  ( 0.3869021909108181200, 10.28484237014340200, -12.30865874481328200 ) ) ;
#80 = CARTESIAN_POINT ( 'NONE',  ( -8.450191762923358500, 24.87107294047750000, -1.850112368530373100 ) ) ;
#81 = DIRECTION ( 'NONE',  ( -2.775557561562890400E-016, 0.0000000000000000000, -1.000000000000000000 ) ) ;
#82 = SURFACE_STYLE_FILL_AREA ( #77 ) ;
#83 = DIRECTION ( 'NONE',  ( -0.0000000000000000000, -1.000000000000000000, -0.0000000000000000000 ) ) ;
#84 = DIRECTION ( 'NONE',  ( 1.000000000000000000, -0.0000000000000000000, -2.775557561562888400E-016 ) ) ;
#85 = CARTESIAN_POINT ( 'NONE',  ( -8.550004073799751600, 24.97436092745555700, -0.9255705950243277000 ) ) ;
#86 = CARTESIAN_POINT ( 'NONE',  ( -4.499166633712661700, 20.71434324078125800, 9.429856972776026000 ) ) ;
#87 = DIRECTION ( 'NONE',  ( 1.000000000000000000, -0.0000000000000000000, -2.775557561562888400E-016 ) ) ;
#88 = CARTESIAN_POINT ( 'NONE',  ( 0.3988154894249169000, 10.30647449475045000, 12.31241342602367800 ) ) ;
#89 = CARTESIAN_POINT ( 'NONE',  ( 0.0000000000000000000, 0.0000000000000000000, 0.0000000000000000000 ) ) ;
#90 = CARTESIAN_POINT ( 'NONE',  ( -6.687855812546549000, 23.03651653587999300, -6.738330694793334400 ) ) ;
#91 = CARTESIAN_POINT ( 'NONE',  ( -3.670095666525608400, 5.186694308679076200, 10.14418885980106200 ) ) ;
#92 = ADVANCED_FACE ( 'NONE', ( #164 ), #94, .T. ) ;
#93 = DIRECTION ( 'NONE',  ( -2.775557561562890400E-016, 0.0000000000000000000, -1.000000000000000000 ) ) ;
#94 = CYLINDRICAL_SURFACE ( 'NONE', #103, 12.50000000000000500 ) ;
#95 = COLOUR_RGB ( '',1.000000000000000000, 1.000000000000000000, 1.000000000000000000 ) ;
#96 =( NAMED_UNIT ( * ) PLANE_ANGLE_UNIT ( ) SI_UNIT ( $, .RADIAN. ) );
#97 =( GEOMETRIC_REPRESENTATION_CONTEXT ( 3 ) GLOBAL_UNCERTAINTY_ASSIGNED_CONTEXT ( ( #195 ) ) GLOBAL_UNIT_ASSIGNED_CONTEXT ( ( #112, #240, #49 ) ) REPRESENTATION_CONTEXT ( 'NONE', 'WORKASPACE' ) );
#98 = SURFACE_SIDE_STYLE ('',( #127 ) ) ;
#99 = CIRCLE ( 'NONE', #37, 12.50000000000000500 ) ;
#100 = CARTESIAN_POINT ( 'NONE',  ( -8.532437705358303100, 0.04381858248434149900, -1.070922931265654100 ) ) ;
#101 =( NAMED_UNIT ( * ) SI_UNIT ( $, .STERADIAN. ) SOLID_ANGLE_UNIT ( ) );
#102 = CARTESIAN_POINT ( 'NONE',  ( 1.048408302435615700, 12.50000000000000000, 12.50000000000000500 ) ) ;
#103 = AXIS2_PLACEMENT_3D ( 'NONE', #222, #87, #81 ) ;
#104 = DIRECTION ( 'NONE',  ( 1.000000000000000000, 0.0000000000000000000, -2.824115135502659500E-016 ) ) ;
#105 = ORIENTED_EDGE ( 'NONE', *, *, #190, .F. ) ;
#106 = SURFACE_STYLE_USAGE ( .BOTH. , #111 ) ;
#107 = VERTEX_POINT ( 'NONE', #200 ) ;
#108 = CARTESIAN_POINT ( 'NONE',  ( -8.549615181031239100, 0.02604813469443596400, -0.8396078226816433600 ) ) ;
#109 = CARTESIAN_POINT ( 'NONE',  ( -5.749466737873389900, 2.950535906956133200, 8.106227011564245200 ) ) ;
#110 = ORIENTED_EDGE ( 'NONE', *, *, #123, .F. ) ;
#111 = SURFACE_SIDE_STYLE ('',( #82 ) ) ;
#112 =( LENGTH_UNIT ( ) NAMED_UNIT ( * ) SI_UNIT ( .MILLI., .METRE. ) );
#113 = CARTESIAN_POINT ( 'NONE',  ( -4.241484515215016200, 20.43612282325257800, -9.664803177678305000 ) ) ;
#114 = CARTESIAN_POINT ( 'NONE',  ( -0.8772944418600757700, 8.437785311844837800, 11.82752375158714900 ) ) ;
#115 = CARTESIAN_POINT ( 'NONE',  ( -8.041945741725545100, 0.5519462779179515900, 3.700143603762116000 ) ) ;
#116 = CARTESIAN_POINT ( 'NONE',  ( -2.597525711902668000, 6.377871244404947700, -10.92312382292887700 ) ) ;
#117 = CARTESIAN_POINT ( 'NONE',  ( 0.9272428916370982800, 11.56888705561978400, -12.46741487502479000 ) ) ;
#118 = CARTESIAN_POINT ( 'NONE',  ( 0.8584970192601929500, 11.34584435103246500, -12.44850928998382100 ) ) ;
#119 = CARTESIAN_POINT ( 'NONE',  ( 0.9296654377825055400, 13.42126096966568500, -12.46807589844800500 ) ) ;
#120 = CARTESIAN_POINT ( 'NONE',  ( 0.9424668481284381700, 13.43314519007477300, 12.47266654785823200 ) ) ;
#121 = FACE_OUTER_BOUND ( 'NONE', #143, .T. ) ;
#122 = APPLICATION_PROTOCOL_DEFINITION ( 'draft international standard', 'automotive_design', 1998, #230 ) ;
#123 = EDGE_CURVE ( 'NONE', #107, #25, #99, .T. ) ;
#124 = CARTESIAN_POINT ( 'NONE',  ( 0.6160137565180838800, 10.70884526983302500, 12.37872377056412000 ) ) ;
#125 = PRODUCT ( '155038', '155038', '', ( #239 ) ) ;
#126 = CARTESIAN_POINT ( 'NONE',  ( -0.3405931974722321600, 9.157387370790131000, 12.05067828290458800 ) ) ;
#127 = SURFACE_STYLE_FILL_AREA ( #50 ) ;
#128 = SHAPE_DEFINITION_REPRESENTATION ( #152, #12 ) ;
#129 =( LENGTH_UNIT ( ) NAMED_UNIT ( * ) SI_UNIT ( .MILLI., .METRE. ) );
#130 = CARTESIAN_POINT ( 'NONE',  ( -4.508136380372755900, 20.72399770908771200, -9.421294812173775000 ) ) ;
#131 = EDGE_CURVE ( 'NONE', #132, #25, #4, .T. ) ;
#132 = VERTEX_POINT ( 'NONE', #156 ) ;
#133 = CARTESIAN_POINT ( 'NONE',  ( 0.6097513428721612600, 10.69623422815850100, -12.37684387312700500 ) ) ;
#134 = CARTESIAN_POINT ( 'NONE',  ( -3.711557839842012800, 5.141216695223281600, -10.11139089001657100 ) ) ;
#135 = CARTESIAN_POINT ( 'NONE',  ( 1.048408302435619000, 12.50000000000000000, -12.50000000000000500 ) ) ;
#136 = AXIS2_PLACEMENT_3D ( 'NONE', #153, #206, #191 ) ;
#137 = APPLICATION_CONTEXT ( 'automotive_design' ) ;
#138 = ORIENTED_EDGE ( 'NONE', *, *, #225, .F. ) ;
#139 = ORIENTED_EDGE ( 'NONE', *, *, #131, .T. ) ;
#140 = VERTEX_POINT ( 'NONE', #102 ) ;
#141 = ORIENTED_EDGE ( 'NONE', *, *, #123, .T. ) ;
#142 = DIRECTION ( 'NONE',  ( 1.000000000000000000, -0.0000000000000000000, -2.775557561562888400E-016 ) ) ;
#143 = EDGE_LOOP ( 'NONE', ( #151, #141 ) ) ;
#144 = CARTESIAN_POINT ( 'NONE',  ( -6.711722831045332100, 1.938469546575873700, -6.699454455844761300 ) ) ;
#145 = CARTESIAN_POINT ( 'NONE',  ( -8.376313620906271900, 24.79460554606880900, -2.301655935059893700 ) ) ;
#146 = CARTESIAN_POINT ( 'NONE',  ( 1.048408302435612300, 12.26368818970355600, -12.50000000000000200 ) ) ;
#147 = FACE_OUTER_BOUND ( 'NONE', #73, .T. ) ;
#148 = CARTESIAN_POINT ( 'NONE',  ( 1.048408302435615700, 12.50000000000000000, 12.50000000000000500 ) ) ;
#149 = CARTESIAN_POINT ( 'NONE',  ( -1.168018795882667300, 16.92817425330709100, -11.69516591779178000 ) ) ;
#150 = ORIENTED_EDGE ( 'NONE', *, *, #68, .F. ) ;
#151 = ORIENTED_EDGE ( 'NONE', *, *, #190, .T. ) ;
#152 = PRODUCT_DEFINITION_SHAPE ( 'NONE', 'NONE',  #30 ) ;
#153 = CARTESIAN_POINT ( 'NONE',  ( -9.654795665148743200, 12.50000000000000000, 2.679744111374819000E-015 ) ) ;
#154 = FILL_AREA_STYLE_COLOUR ( '', #95 ) ;
#155 =( NAMED_UNIT ( * ) PLANE_ANGLE_UNIT ( ) SI_UNIT ( $, .RADIAN. ) );
#156 = CARTESIAN_POINT ( 'NONE',  ( 1.048408302435619000, 12.50000000000000000, -12.50000000000000500 ) ) ;
#157 = CARTESIAN_POINT ( 'NONE',  ( -2.575433776775716900, 18.59702348471576600, 10.93689406091687600 ) ) ;
#158 = EDGE_CURVE ( 'NONE', #140, #132, #162, .T. ) ;
#159 = CARTESIAN_POINT ( 'NONE',  ( -7.600553910486504500, 1.010532703906684300, 4.942068905967246900 ) ) ;
#160 = CARTESIAN_POINT ( 'NONE',  ( -8.182194623380434400, 24.59347586518887500, 3.194456032967062600 ) ) ;
#161 = CARTESIAN_POINT ( 'NONE',  ( -5.780932071802066500, 22.08272421553071400, 8.066533679276128400 ) ) ;
#162 = B_SPLINE_CURVE_WITH_KNOTS ( 'NONE', 3,
 ( #51, #41, #23, #124, #88, #209, #126, #114, #212, #181, #236, #172, #91, #197, #250, #237, #109, #52, #8, #247, #21, #159, #38, #115, #245, #231, #78, #170, #10, #65, #24, #108, #100, #214, #44, #178, #167, #76, #9, #14, #224, #144, #29, #27, #227, #238, #173, #134, #67, #116, #17, #193, #6, #207, #246, #79, #133, #118, #117, #221, #146, #135 ),
 .UNSPECIFIED., .F., .F.,
 ( 4, 2, 2, 2, 2, 2, 2, 2, 2, 2, 2, 2, 2, 2, 2, 2, 2, 2, 2, 2, 2, 2, 2, 2, 2, 2, 2, 2, 2, 2, 4 ),
 ( 0.02216716651609713900, 0.02355180920259899700, 0.02493645188910085700, 0.02632109457560271500, 0.02770573726210457500, 0.03047502263510829700, 0.03185966532161015700, 0.03324430800811201800, 0.03601359338111574000, 0.03739823606761759300, 0.03878287875411945400, 0.04016752144062131500, 0.04155216412712317600, 0.04293680681362503600, 0.04432144950012689700, 0.04501377084337782100, 0.04570609218662875800, 0.04709073487313060500, 0.04847537755963246500, 0.04986002024613432600, 0.05124466293263618700, 0.05262930561913804800, 0.05539859099214176900, 0.05678323367864363000, 0.05816787636514549100, 0.06093716173814920500, 0.06232180442465107300, 0.06370644711115294700, 0.06509108979765479400, 0.06578341114090573100, 0.06647573248415666900 ),
 .UNSPECIFIED. ) ;
#163 = CARTESIAN_POINT ( 'NONE',  ( -0.3504377797817349600, 15.85650794522087600, 12.04690461991585300 ) ) ;
#164 = FACE_OUTER_BOUND ( 'NONE', #33, .T. ) ;
#165 = CARTESIAN_POINT ( 'NONE',  ( -5.782532330602204100, 22.08443947624209600, -8.065425895260789300 ) ) ;
#166 = ORIENTED_EDGE ( 'NONE', *, *, #225, .T. ) ;
#167 = CARTESIAN_POINT ( 'NONE',  ( -8.086316915768254200, 0.5059178383029308000, -3.548468107495526400 ) ) ;
#168 = CARTESIAN_POINT ( 'NONE',  ( -3.684589913576362500, 19.82921073631745700, 10.13276610755242600 ) ) ;
#169 = ORIENTED_EDGE ( 'NONE', *, *, #68, .T. ) ;
#170 = CARTESIAN_POINT ( 'NONE',  ( -8.541925267817523700, 0.03399612876583623500, 1.030513574312016200 ) ) ;
#171 = ADVANCED_FACE ( 'NONE', ( #121 ), #26, .T. ) ;
#172 = CARTESIAN_POINT ( 'NONE',  ( -3.392322947123213700, 5.492266446838792500, 10.35750631210235500 ) ) ;
#173 = CARTESIAN_POINT ( 'NONE',  ( -4.258301505942869300, 4.545660139710334700, -9.649890923962699300 ) ) ;
#174 = COLOUR_RGB ( '',1.000000000000000000, 1.000000000000000000, 1.000000000000000000 ) ;
#175 = EDGE_LOOP ( 'NONE', ( #138, #32, #139, #110 ) ) ;
#176 = CARTESIAN_POINT ( 'NONE',  ( -9.654795665148739700, 12.50000000000000200, 12.50000000000000900 ) ) ;
#177 = LINE ( 'NONE', #176, #54 ) ;
#178 = CARTESIAN_POINT ( 'NONE',  ( -8.204509244697776500, 0.3833935930573229600, -3.105914903451073800 ) ) ;
#179 = CARTESIAN_POINT ( 'NONE',  ( -0.08706469087848724100, 15.48207100485849200, -12.14560337365669800 ) ) ;
#180 = STYLED_ITEM ( 'NONE', ( #186 ), #249 ) ;
#181 = CARTESIAN_POINT ( 'NONE',  ( -1.987990110072110900, 7.073083247607040200, 11.28433118475919800 ) ) ;
#182 = CARTESIAN_POINT ( 'NONE',  ( 1.048408302435615700, 12.97031347215841800, 12.50000000000000900 ) ) ;
#183 = DIRECTION ( 'NONE',  ( 1.000000000000000000, 0.0000000000000000000, -2.775557561562887900E-016 ) ) ;
#184 = CYLINDRICAL_SURFACE ( 'NONE', #136, 12.50000000000000500 ) ;
#185 = CARTESIAN_POINT ( 'NONE',  ( 4.355204334851265500, 25.00000000000000000, 4.286263797015675000E-017 ) ) ;
#186 = PRESENTATION_STYLE_ASSIGNMENT (( #106 ) ) ;
#187 = DIRECTION ( 'NONE',  ( 1.000000000000000000, 0.0000000000000000000, -2.824115135502659500E-016 ) ) ;
#188 = CIRCLE ( 'NONE', #22, 12.50000000000000500 ) ;
#189 = DIRECTION ( 'NONE',  ( 0.0000000000000000000, 0.0000000000000000000, -1.000000000000000000 ) ) ;
#190 = EDGE_CURVE ( 'NONE', #25, #107, #188, .T. ) ;
#191 = DIRECTION ( 'NONE',  ( -2.775557561562890400E-016, 0.0000000000000000000, -1.000000000000000000 ) ) ;
#192 = CARTESIAN_POINT ( 'NONE',  ( 0.3923805020586738100, 14.70523086538894100, 12.31038707763724300 ) ) ;
#193 = CARTESIAN_POINT ( 'NONE',  ( -1.185679663079874900, 8.049814713751269200, -11.68685923671424500 ) ) ;
#194 = ADVANCED_FACE ( 'NONE', ( #147 ), #204, .T. ) ;
#195 = UNCERTAINTY_MEASURE_WITH_UNIT (LENGTH_MEASURE( 1.000000000000000100E-005 ), #112, 'distance_accuracy_value', 'NONE');
#196 = AXIS2_PLACEMENT_3D ( 'NONE', #185, #83, #189 ) ;
#197 = CARTESIAN_POINT ( 'NONE',  ( -4.212675974943896200, 4.595091839522550200, 9.690275266081764400 ) ) ;
#198 = UNCERTAINTY_MEASURE_WITH_UNIT (LENGTH_MEASURE( 1.000000000000000100E-005 ), #36, 'distance_accuracy_value', 'NONE');
#199 =( GEOMETRIC_REPRESENTATION_CONTEXT ( 3 ) GLOBAL_UNCERTAINTY_ASSIGNED_CONTEXT ( ( #198 ) ) GLOBAL_UNIT_ASSIGNED_CONTEXT ( ( #36, #96, #101 ) ) REPRESENTATION_CONTEXT ( 'NONE', 'WORKASPACE' ) );
#200 = CARTESIAN_POINT ( 'NONE',  ( 3.045204334851260500, 12.50000000000000200, 12.50000000000000500 ) ) ;
#201 = CARTESIAN_POINT ( 'NONE',  ( -8.573822204807303400, 24.99899305258561800, 0.9522491053793326100 ) ) ;
#202 = CARTESIAN_POINT ( 'NONE',  ( 0.6135518574122074100, 14.29553503290865600, 12.37797336826263700 ) ) ;
#203 = CARTESIAN_POINT ( 'NONE',  ( -7.094023992767366900, 23.46147036623152700, -6.022412197242474900 ) ) ;
#204 = CYLINDRICAL_SURFACE ( 'NONE', #196, 12.93000000000000000 ) ;
#205 = CARTESIAN_POINT ( 'NONE',  ( -7.627675560059111100, 24.01768563905186200, 4.876240315649847700 ) ) ;
#206 = DIRECTION ( 'NONE',  ( 1.000000000000000000, -0.0000000000000000000, -2.775557561562888400E-016 ) ) ;
#207 = CARTESIAN_POINT ( 'NONE',  ( -0.3607939880245142300, 9.128959757319178100, -12.04290020215219500 ) ) ;
#208 = CARTESIAN_POINT ( 'NONE',  ( -9.654795665148745000, 12.50000000000000000, -12.50000000000000200 ) ) ;
#209 = CARTESIAN_POINT ( 'NONE',  ( -0.07842053390449056600, 9.530897286583746500, 12.14872452534391600 ) ) ;
#210 = CARTESIAN_POINT ( 'NONE',  ( 3.045204334851257000, 12.50000000000000000, -8.452139918100490900E-016 ) ) ;
#211 = AXIS2_PLACEMENT_3D ( 'NONE', #89, #2, #1 ) ;
#212 = CARTESIAN_POINT ( 'NONE',  ( -1.153141503768493300, 8.090405200512881500, 11.70213068784994300 ) ) ;
#213 = STYLED_ITEM ( 'NONE', ( #252 ), #12 ) ;
#214 = CARTESIAN_POINT ( 'NONE',  ( -8.462774327217507800, 0.1159041678775953900, -1.759970495178899500 ) ) ;
#215 = VECTOR ( 'NONE', #142, 1000.000000000000000 ) ;
#216 = CARTESIAN_POINT ( 'NONE',  ( 3.045204334851253400, 25.00000000000000000, -12.50000000000003200 ) ) ;
#217 = FILL_AREA_STYLE_COLOUR ( '', #174 ) ;
#218 =( GEOMETRIC_REPRESENTATION_CONTEXT ( 3 ) GLOBAL_UNCERTAINTY_ASSIGNED_CONTEXT ( ( #31 ) ) GLOBAL_UNIT_ASSIGNED_CONTEXT ( ( #129, #155, #16 ) ) REPRESENTATION_CONTEXT ( 'NONE', 'WORKASPACE' ) );
#219 = ORIENTED_EDGE ( 'NONE', *, *, #158, .F. ) ;
#220 = CARTESIAN_POINT ( 'NONE',  ( -3.408959207924295400, 19.52609765116277500, 10.34498857247066700 ) ) ;
#221 = CARTESIAN_POINT ( 'NONE',  ( 1.022860083872073800, 12.03035133763257700, -12.49331161522510000 ) ) ;
#222 = CARTESIAN_POINT ( 'NONE',  ( -9.654795665148743200, 12.50000000000000000, 2.679744111374819000E-015 ) ) ;
#223 = ORIENTED_EDGE ( 'NONE', *, *, #131, .F. ) ;
#224 = CARTESIAN_POINT ( 'NONE',  ( -7.121258626784162400, 1.510084134392343200, -5.970792643477796700 ) ) ;
#225 = EDGE_CURVE ( 'NONE', #140, #107, #177, .T. ) ;
#226 = CARTESIAN_POINT ( 'NONE',  ( -5.287097130029347400, 21.55984967056972600, 8.646367651459346600 ) ) ;
#227 = CARTESIAN_POINT ( 'NONE',  ( -5.319346988627183100, 3.405841066147045700, -8.610645131926435900 ) ) ;
#228 = CARTESIAN_POINT ( 'NONE',  ( -7.279953689459513400, 23.65547283421270900, 5.655990447404660900 ) ) ;
#229 = CARTESIAN_POINT ( 'NONE',  ( -6.678309910777246100, 23.02651516977390100, 6.754140372284510400 ) ) ;
#230 = APPLICATION_CONTEXT ( 'automotive_design' ) ;
#231 = CARTESIAN_POINT ( 'NONE',  ( -8.358917560318820600, 0.2234080409912380100, 2.395347873895636900 ) ) ;
#232 = CARTESIAN_POINT ( 'NONE',  ( -7.630162773109241000, 24.02027277971760100, -4.870093533704133100 ) ) ;
#233 = DIRECTION ( 'NONE',  ( -2.775557561562887900E-016, 0.0000000000000000000, -1.000000000000000000 ) ) ;
#234 = PRESENTATION_LAYER_ASSIGNMENT (  '', '', ( #180 ) ) ;
#235 = CARTESIAN_POINT ( 'NONE',  ( -6.470169850532486500, 22.80822463363560700, -7.082100580967090900 ) ) ;
#236 = CARTESIAN_POINT ( 'NONE',  ( -2.553858479615465100, 6.427401606981033100, 10.95073581940817900 ) ) ;
#237 = CARTESIAN_POINT ( 'NONE',  ( -5.256418290820633400, 3.472852923355987300, 8.679503388993843800 ) ) ;
#238 = CARTESIAN_POINT ( 'NONE',  ( -4.529429654880225100, 4.253046502957472400, -9.401435640004915900 ) ) ;
#239 = PRODUCT_CONTEXT ( 'NONE', #230, 'mechanical' ) ;
#240 =( NAMED_UNIT ( * ) PLANE_ANGLE_UNIT ( ) SI_UNIT ( $, .RADIAN. ) );
#241 = CARTESIAN_POINT ( 'NONE',  ( -4.229124230777832900, 20.42273534727601000, 9.675770957641425700 ) ) ;
#242 = CARTESIAN_POINT ( 'NONE',  ( -2.007270852061756800, 17.94947009966965400, -11.27367765558903700 ) ) ;
#243 = CARTESIAN_POINT ( 'NONE',  ( -1.170637596747716300, 16.93143424333448300, 11.69392940138727100 ) ) ;
#244 = PRODUCT_RELATED_PRODUCT_CATEGORY ( 'part', '', ( #125 ) ) ;
#245 = CARTESIAN_POINT ( 'NONE',  ( -8.162084599375102600, 0.4273724141899800100, 3.271706701297331800 ) ) ;
#246 = CARTESIAN_POINT ( 'NONE',  ( -0.09743510028199282900, 9.502417747781825200, -12.14184928511991600 ) ) ;
#247 = CARTESIAN_POINT ( 'NONE',  ( -7.061768509154805300, 1.572222702595446700, 6.083159166629799900 ) ) ;
#248 = MECHANICAL_DESIGN_GEOMETRIC_PRESENTATION_REPRESENTATION (  '', ( #213 ), #218 ) ;
#249 = MANIFOLD_SOLID_BREP ( 'ÇÐ³ý-À­Éì8', #61 ) ;
#250 = CARTESIAN_POINT ( 'NONE',  ( -4.478467717172133400, 4.307984946671663100, 9.449030649848248600 ) ) ;
#251 = CARTESIAN_POINT ( 'NONE',  ( -8.575272117832433600, 25.00049284267443300, -0.4561579902459397800 ) ) ;
#252 = PRESENTATION_STYLE_ASSIGNMENT (( #70 ) ) ;
ENDSEC;
END-ISO-10303-21;
