ISO-10303-21;
HEADER;
FILE_DESCRIPTION (( 'STEP AP214' ),
    '1' );
FILE_NAME ('155036.STEP',
    '2019-06-17T07:20:19',
    ( 'user' ),
    ( 'Î¢ÈíÖÐ¹ú' ),
    'SwSTEP 2.0',
    'SolidWorks 2016',
    '' );
FILE_SCHEMA (( 'AUTOMOTIVE_DESIGN' ));
ENDSEC;

DATA;
#1 = CARTESIAN_POINT ( 'NONE',  ( -250.9547956651487100, 20.00000000000000000, -10.00000000000000400 ) ) ;
#2 = DIRECTION ( 'NONE',  ( 0.0000000000000000000, -0.0000000000000000000, 1.000000000000000000 ) ) ;
#3 = VECTOR ( 'NONE', #150, 1000.000000000000000 ) ;
#4 = AXIS2_PLACEMENT_3D ( 'NONE', #203, #115, #138 ) ;
#5 = DIRECTION ( 'NONE',  ( -1.000000000000000000, -0.0000000000000000000, 1.157831583557528600E-015 ) ) ;
#6 = CARTESIAN_POINT ( 'NONE',  ( -253.9512996483044300, 20.00000000000000000, 10.00000000000000000 ) ) ;
#7 = CYLINDRICAL_SURFACE ( 'NONE', #58, 258.5000000000000600 ) ;
#8 = DIRECTION ( 'NONE',  ( 0.0000000000000000000, 0.0000000000000000000, 1.000000000000000000 ) ) ;
#9 = CARTESIAN_POINT ( 'NONE',  ( -253.9512996483044300, 20.00000000000000000, 10.00000000000000000 ) ) ;
#10 = EDGE_CURVE ( 'NONE', #189, #24, #160, .T. ) ;
#11 = EDGE_CURVE ( 'NONE', #149, #189, #25, .T. ) ;
#12 = ORIENTED_EDGE ( 'NONE', *, *, #10, .F. ) ;
#13 = PRODUCT_DEFINITION_SHAPE ( 'NONE', 'NONE',  #173 ) ;
#14 = ORIENTED_EDGE ( 'NONE', *, *, #102, .T. ) ;
#15 = VECTOR ( 'NONE', #171, 1000.000000000000000 ) ;
#16 = CARTESIAN_POINT ( 'NONE',  ( -253.9512996483044300, 20.00000000000000000, -10.00000000000000000 ) ) ;
#17 = FACE_OUTER_BOUND ( 'NONE', #147, .T. ) ;
#18 = LINE ( 'NONE', #157, #3 ) ;
#19 = CLOSED_SHELL ( 'NONE', ( #104, #21, #90, #120, #151, #66 ) ) ;
#20 = SURFACE_STYLE_FILL_AREA ( #72 ) ;
#21 = ADVANCED_FACE ( 'NONE', ( #17 ), #27, .F. ) ;
#22 = PLANE ( 'NONE',  #191 ) ;
#23 = ORIENTED_EDGE ( 'NONE', *, *, #148, .F. ) ;
#24 = VERTEX_POINT ( 'NONE', #16 ) ;
#25 = LINE ( 'NONE', #37, #130 ) ;
#26 = LINE ( 'NONE', #119, #164 ) ;
#27 = PLANE ( 'NONE',  #4 ) ;
#28 = ORIENTED_EDGE ( 'NONE', *, *, #202, .F. ) ;
#29 = AXIS2_PLACEMENT_3D ( 'NONE', #139, #141, #137 ) ;
#30 = ORIENTED_EDGE ( 'NONE', *, *, #77, .T. ) ;
#31 = SHAPE_DEFINITION_REPRESENTATION ( #13, #123 ) ;
#32 = APPLICATION_PROTOCOL_DEFINITION ( 'draft international standard', 'automotive_design', 1998, #47 ) ;
#33 = DIRECTION ( 'NONE',  ( -1.000000000000000000, 0.0000000000000000000, 0.0000000000000000000 ) ) ;
#34 = EDGE_CURVE ( 'NONE', #45, #56, #46, .T. ) ;
#35 = VERTEX_POINT ( 'NONE', #6 ) ;
#36 = VECTOR ( 'NONE', #5, 1000.000000000000000 ) ;
#37 = CARTESIAN_POINT ( 'NONE',  ( -250.9547956651487100, 20.00000000000000000, -10.00000000000000400 ) ) ;
#38 = ORIENTED_EDGE ( 'NONE', *, *, #196, .T. ) ;
#39 = CARTESIAN_POINT ( 'NONE',  ( -250.9547956651487100, 0.0000000000000000000, 10.00000000000000000 ) ) ;
#40 = DIRECTION ( 'NONE',  ( 0.0000000000000000000, 1.000000000000000000, 0.0000000000000000000 ) ) ;
#41 = PRODUCT_RELATED_PRODUCT_CATEGORY ( 'part', '', ( #70 ) ) ;
#42 = ORIENTED_EDGE ( 'NONE', *, *, #10, .T. ) ;
#43 = STYLED_ITEM ( 'NONE', ( #62 ), #158 ) ;
#44 = FILL_AREA_STYLE ('',( #142 ) ) ;
#45 = VERTEX_POINT ( 'NONE', #194 ) ;
#46 = LINE ( 'NONE', #105, #201 ) ;
#47 = APPLICATION_CONTEXT ( 'automotive_design' ) ;
#48 = AXIS2_PLACEMENT_3D ( 'NONE', #195, #51, #49 ) ;
#49 = DIRECTION ( 'NONE',  ( 1.000000000000000000, 0.0000000000000000000, 0.0000000000000000000 ) ) ;
#50 = FACE_OUTER_BOUND ( 'NONE', #86, .T. ) ;
#51 = DIRECTION ( 'NONE',  ( 0.0000000000000000000, 0.0000000000000000000, 1.000000000000000000 ) ) ;
#52 = STYLED_ITEM ( 'NONE', ( #68 ), #123 ) ;
#53 = ORIENTED_EDGE ( 'NONE', *, *, #87, .F. ) ;
#54 =( GEOMETRIC_REPRESENTATION_CONTEXT ( 3 ) GLOBAL_UNCERTAINTY_ASSIGNED_CONTEXT ( ( #128 ) ) GLOBAL_UNIT_ASSIGNED_CONTEXT ( ( #133, #127, #129 ) ) REPRESENTATION_CONTEXT ( 'NONE', 'WORKASPACE' ) );
#55 = LINE ( 'NONE', #162, #187 ) ;
#56 = VERTEX_POINT ( 'NONE', #73 ) ;
#57 = PRODUCT_CONTEXT ( 'NONE', #79, 'mechanical' ) ;
#58 = AXIS2_PLACEMENT_3D ( 'NONE', #101, #145, #106 ) ;
#59 = ORIENTED_EDGE ( 'NONE', *, *, #113, .F. ) ;
#60 =( GEOMETRIC_REPRESENTATION_CONTEXT ( 3 ) GLOBAL_UNCERTAINTY_ASSIGNED_CONTEXT ( ( #174 ) ) GLOBAL_UNIT_ASSIGNED_CONTEXT ( ( #89, #97, #103 ) ) REPRESENTATION_CONTEXT ( 'NONE', 'WORKASPACE' ) );
#61 = CARTESIAN_POINT ( 'NONE',  ( -250.9547956651487100, 20.00000000000000000, -10.00000000000000400 ) ) ;
#62 = PRESENTATION_STYLE_ASSIGNMENT (( #136 ) ) ;
#63 =( NAMED_UNIT ( * ) SI_UNIT ( $, .STERADIAN. ) SOLID_ANGLE_UNIT ( ) );
#64 =( NAMED_UNIT ( * ) PLANE_ANGLE_UNIT ( ) SI_UNIT ( $, .RADIAN. ) );
#65 = PLANE ( 'NONE',  #175 ) ;
#66 = ADVANCED_FACE ( 'NONE', ( #185 ), #179, .F. ) ;
#67 = SURFACE_STYLE_USAGE ( .BOTH. , #82 ) ;
#68 = PRESENTATION_STYLE_ASSIGNMENT (( #67 ) ) ;
#69 = CARTESIAN_POINT ( 'NONE',  ( -253.9512996483044300, 20.00000000000000000, -10.00000000000000000 ) ) ;
#70 = PRODUCT ( '155036', '155036', '', ( #57 ) ) ;
#71 = APPLICATION_PROTOCOL_DEFINITION ( 'draft international standard', 'automotive_design', 1998, #79 ) ;
#72 = FILL_AREA_STYLE ('',( #80 ) ) ;
#73 = CARTESIAN_POINT ( 'NONE',  ( -253.9512996483044300, 0.0000000000000000000, -10.00000000000000000 ) ) ;
#74 = UNCERTAINTY_MEASURE_WITH_UNIT (LENGTH_MEASURE( 1.000000000000000100E-005 ), #81, 'distance_accuracy_value', 'NONE');
#75 = PRODUCT_DEFINITION_CONTEXT ( 'detailed design', #47, 'design' ) ;
#76 = ORIENTED_EDGE ( 'NONE', *, *, #85, .T. ) ;
#77 = EDGE_CURVE ( 'NONE', #24, #56, #172, .T. ) ;
#78 = ORIENTED_EDGE ( 'NONE', *, *, #11, .F. ) ;
#79 = APPLICATION_CONTEXT ( 'automotive_design' ) ;
#80 = FILL_AREA_STYLE_COLOUR ( '', #132 ) ;
#81 =( LENGTH_UNIT ( ) NAMED_UNIT ( * ) SI_UNIT ( .MILLI., .METRE. ) );
#82 = SURFACE_SIDE_STYLE ('',( #20 ) ) ;
#83 = ORIENTED_EDGE ( 'NONE', *, *, #113, .T. ) ;
#84 = ORIENTED_EDGE ( 'NONE', *, *, #34, .T. ) ;
#85 = EDGE_CURVE ( 'NONE', #56, #92, #146, .T. ) ;
#86 = EDGE_LOOP ( 'NONE', ( #84, #188, #12, #14 ) ) ;
#87 = EDGE_CURVE ( 'NONE', #149, #178, #55, .T. ) ;
#88 = DIRECTION ( 'NONE',  ( 0.0000000000000000000, 1.000000000000000000, 0.0000000000000000000 ) ) ;
#89 =( LENGTH_UNIT ( ) NAMED_UNIT ( * ) SI_UNIT ( .MILLI., .METRE. ) );
#90 = ADVANCED_FACE ( 'NONE', ( #140 ), #22, .F. ) ;
#91 = LINE ( 'NONE', #9, #112 ) ;
#92 = VERTEX_POINT ( 'NONE', #199 ) ;
#93 = EDGE_CURVE ( 'NONE', #35, #92, #91, .T. ) ;
#94 = ORIENTED_EDGE ( 'NONE', *, *, #93, .T. ) ;
#95 = SURFACE_STYLE_FILL_AREA ( #44 ) ;
#96 = EDGE_LOOP ( 'NONE', ( #38, #109, #78, #144 ) ) ;
#97 =( NAMED_UNIT ( * ) PLANE_ANGLE_UNIT ( ) SI_UNIT ( $, .RADIAN. ) );
#98 = DIRECTION ( 'NONE',  ( 0.0000000000000000000, 0.0000000000000000000, 1.000000000000000000 ) ) ;
#99 = FACE_OUTER_BOUND ( 'NONE', #100, .T. ) ;
#100 = EDGE_LOOP ( 'NONE', ( #108, #83, #176, #42 ) ) ;
#101 = CARTESIAN_POINT ( 'NONE',  ( 4.355204334851265500, 20.00000000000000000, 4.286263797015675000E-017 ) ) ;
#102 = EDGE_CURVE ( 'NONE', #189, #45, #193, .T. ) ;
#103 =( NAMED_UNIT ( * ) SI_UNIT ( $, .STERADIAN. ) SOLID_ANGLE_UNIT ( ) );
#104 = ADVANCED_FACE ( 'NONE', ( #204 ), #7, .T. ) ;
#105 = CARTESIAN_POINT ( 'NONE',  ( -253.9512996483044300, 0.0000000000000000000, -10.00000000000000000 ) ) ;
#106 = DIRECTION ( 'NONE',  ( 0.0000000000000000000, 0.0000000000000000000, -1.000000000000000000 ) ) ;
#107 = ORIENTED_EDGE ( 'NONE', *, *, #93, .F. ) ;
#108 = ORIENTED_EDGE ( 'NONE', *, *, #148, .T. ) ;
#109 = ORIENTED_EDGE ( 'NONE', *, *, #102, .F. ) ;
#110 = EDGE_LOOP ( 'NONE', ( #198, #159, #163, #28 ) ) ;
#111 = MECHANICAL_DESIGN_GEOMETRIC_PRESENTATION_REPRESENTATION (  '', ( #52 ), #131 ) ;
#112 = VECTOR ( 'NONE', #135, 1000.000000000000000 ) ;
#113 = EDGE_CURVE ( 'NONE', #35, #149, #18, .T. ) ;
#114 = CARTESIAN_POINT ( 'NONE',  ( -250.9547956651487100, 0.0000000000000000000, -10.00000000000000400 ) ) ;
#115 = DIRECTION ( 'NONE',  ( 0.0000000000000000000, 0.0000000000000000000, -1.000000000000000000 ) ) ;
#116 = VECTOR ( 'NONE', #117, 1000.000000000000000 ) ;
#117 = DIRECTION ( 'NONE',  ( -0.0000000000000000000, -0.0000000000000000000, -1.000000000000000000 ) ) ;
#118 = AXIS2_PLACEMENT_3D ( 'NONE', #184, #170, #166 ) ;
#119 = CARTESIAN_POINT ( 'NONE',  ( -253.9512996483044300, 0.0000000000000000000, 10.00000000000000000 ) ) ;
#120 = ADVANCED_FACE ( 'NONE', ( #50 ), #124, .F. ) ;
#121 = DIRECTION ( 'NONE',  ( 1.000000000000000000, 0.0000000000000000000, 0.0000000000000000000 ) ) ;
#122 = EDGE_LOOP ( 'NONE', ( #76, #107, #23, #30 ) ) ;
#123 = ADVANCED_BREP_SHAPE_REPRESENTATION ( '155036', ( #158, #48 ), #60 ) ;
#124 = PLANE ( 'NONE',  #177 ) ;
#125 = CARTESIAN_POINT ( 'NONE',  ( -250.9547956651487100, 20.00000000000000000, -10.00000000000000400 ) ) ;
#126 = COLOUR_RGB ( '',1.000000000000000000, 1.000000000000000000, 1.000000000000000000 ) ;
#127 =( NAMED_UNIT ( * ) PLANE_ANGLE_UNIT ( ) SI_UNIT ( $, .RADIAN. ) );
#128 = UNCERTAINTY_MEASURE_WITH_UNIT (LENGTH_MEASURE( 1.000000000000000100E-005 ), #133, 'distance_accuracy_value', 'NONE');
#129 =( NAMED_UNIT ( * ) SI_UNIT ( $, .STERADIAN. ) SOLID_ANGLE_UNIT ( ) );
#130 = VECTOR ( 'NONE', #190, 1000.000000000000000 ) ;
#131 =( GEOMETRIC_REPRESENTATION_CONTEXT ( 3 ) GLOBAL_UNCERTAINTY_ASSIGNED_CONTEXT ( ( #74 ) ) GLOBAL_UNIT_ASSIGNED_CONTEXT ( ( #81, #64, #63 ) ) REPRESENTATION_CONTEXT ( 'NONE', 'WORKASPACE' ) );
#132 = COLOUR_RGB ( '',1.000000000000000000, 1.000000000000000000, 1.000000000000000000 ) ;
#133 =( LENGTH_UNIT ( ) NAMED_UNIT ( * ) SI_UNIT ( .MILLI., .METRE. ) );
#134 = SURFACE_SIDE_STYLE ('',( #95 ) ) ;
#135 = DIRECTION ( 'NONE',  ( -0.0000000000000000000, -1.000000000000000000, -0.0000000000000000000 ) ) ;
#136 = SURFACE_STYLE_USAGE ( .BOTH. , #134 ) ;
#137 = DIRECTION ( 'NONE',  ( 0.0000000000000000000, 0.0000000000000000000, 1.000000000000000000 ) ) ;
#138 = DIRECTION ( 'NONE',  ( -1.000000000000000000, 0.0000000000000000000, -0.0000000000000000000 ) ) ;
#139 = CARTESIAN_POINT ( 'NONE',  ( 4.355204334851265500, 20.00000000000000000, 4.286263797015675000E-017 ) ) ;
#140 = FACE_OUTER_BOUND ( 'NONE', #96, .T. ) ;
#141 = DIRECTION ( 'NONE',  ( 0.0000000000000000000, 1.000000000000000000, 0.0000000000000000000 ) ) ;
#142 = FILL_AREA_STYLE_COLOUR ( '', #126 ) ;
#143 = MECHANICAL_DESIGN_GEOMETRIC_PRESENTATION_REPRESENTATION (  '', ( #43 ), #54 ) ;
#144 = ORIENTED_EDGE ( 'NONE', *, *, #87, .T. ) ;
#145 = DIRECTION ( 'NONE',  ( -0.0000000000000000000, -1.000000000000000000, -0.0000000000000000000 ) ) ;
#146 = CIRCLE ( 'NONE', #165, 258.5000000000000600 ) ;
#147 = EDGE_LOOP ( 'NONE', ( #182, #53, #59, #94 ) ) ;
#148 = EDGE_CURVE ( 'NONE', #24, #35, #192, .T. ) ;
#149 = VERTEX_POINT ( 'NONE', #197 ) ;
#150 = DIRECTION ( 'NONE',  ( 1.000000000000000000, 0.0000000000000000000, 0.0000000000000000000 ) ) ;
#151 = ADVANCED_FACE ( 'NONE', ( #99 ), #65, .T. ) ;
#152 = PRODUCT_DEFINITION_FORMATION_WITH_SPECIFIED_SOURCE ( 'ÈÎºÎ', '', #70, .NOT_KNOWN. ) ;
#153 = LINE ( 'NONE', #114, #116 ) ;
#154 = VECTOR ( 'NONE', #169, 1000.000000000000000 ) ;
#155 = DIRECTION ( 'NONE',  ( 1.000000000000000000, 0.0000000000000000000, -1.157831583557528600E-015 ) ) ;
#156 = DIRECTION ( 'NONE',  ( 1.157831583557528600E-015, -0.0000000000000000000, 1.000000000000000000 ) ) ;
#157 = CARTESIAN_POINT ( 'NONE',  ( -253.9512996483044300, 20.00000000000000000, 10.00000000000000000 ) ) ;
#158 = MANIFOLD_SOLID_BREP ( 'Í¹Ì¨-À­Éì1', #19 ) ;
#159 = ORIENTED_EDGE ( 'NONE', *, *, #34, .F. ) ;
#160 = LINE ( 'NONE', #69, #36 ) ;
#161 = PRESENTATION_LAYER_ASSIGNMENT (  '', '', ( #52 ) ) ;
#162 = CARTESIAN_POINT ( 'NONE',  ( -250.9547956651487100, 20.00000000000000000, 10.00000000000000000 ) ) ;
#163 = ORIENTED_EDGE ( 'NONE', *, *, #196, .F. ) ;
#164 = VECTOR ( 'NONE', #121, 1000.000000000000000 ) ;
#165 = AXIS2_PLACEMENT_3D ( 'NONE', #200, #88, #98 ) ;
#166 = DIRECTION ( 'NONE',  ( 0.0000000000000000000, -0.0000000000000000000, 1.000000000000000000 ) ) ;
#167 = CARTESIAN_POINT ( 'NONE',  ( -253.9512996483044300, 20.00000000000000000, -10.00000000000000000 ) ) ;
#168 = DIRECTION ( 'NONE',  ( -0.0000000000000000000, -1.000000000000000000, -0.0000000000000000000 ) ) ;
#169 = DIRECTION ( 'NONE',  ( -0.0000000000000000000, -1.000000000000000000, -0.0000000000000000000 ) ) ;
#170 = DIRECTION ( 'NONE',  ( 0.0000000000000000000, 1.000000000000000000, 0.0000000000000000000 ) ) ;
#171 = DIRECTION ( 'NONE',  ( -0.0000000000000000000, -1.000000000000000000, -0.0000000000000000000 ) ) ;
#172 = LINE ( 'NONE', #167, #15 ) ;
#173 = PRODUCT_DEFINITION ( 'Î´Öª', '', #152, #75 ) ;
#174 = UNCERTAINTY_MEASURE_WITH_UNIT (LENGTH_MEASURE( 1.000000000000000100E-005 ), #89, 'distance_accuracy_value', 'NONE');
#175 = AXIS2_PLACEMENT_3D ( 'NONE', #180, #40, #2 ) ;
#176 = ORIENTED_EDGE ( 'NONE', *, *, #11, .T. ) ;
#177 = AXIS2_PLACEMENT_3D ( 'NONE', #183, #156, #155 ) ;
#178 = VERTEX_POINT ( 'NONE', #39 ) ;
#179 = PLANE ( 'NONE',  #118 ) ;
#180 = CARTESIAN_POINT ( 'NONE',  ( 4.355204334851265500, 20.00000000000000000, 4.286263797015675000E-017 ) ) ;
#181 = PRESENTATION_LAYER_ASSIGNMENT (  '', '', ( #43 ) ) ;
#182 = ORIENTED_EDGE ( 'NONE', *, *, #202, .T. ) ;
#183 = CARTESIAN_POINT ( 'NONE',  ( -253.9512996483044300, 20.00000000000000000, -10.00000000000000000 ) ) ;
#184 = CARTESIAN_POINT ( 'NONE',  ( 4.355204334851265500, 0.0000000000000000000, 4.286263797015675000E-017 ) ) ;
#185 = FACE_OUTER_BOUND ( 'NONE', #110, .T. ) ;
#186 = DIRECTION ( 'NONE',  ( -1.000000000000000000, -0.0000000000000000000, 1.157831583557528600E-015 ) ) ;
#187 = VECTOR ( 'NONE', #168, 1000.000000000000000 ) ;
#188 = ORIENTED_EDGE ( 'NONE', *, *, #77, .F. ) ;
#189 = VERTEX_POINT ( 'NONE', #125 ) ;
#190 = DIRECTION ( 'NONE',  ( -0.0000000000000000000, -0.0000000000000000000, -1.000000000000000000 ) ) ;
#191 = AXIS2_PLACEMENT_3D ( 'NONE', #1, #33, #8 ) ;
#192 = CIRCLE ( 'NONE', #29, 258.5000000000000600 ) ;
#193 = LINE ( 'NONE', #61, #154 ) ;
#194 = CARTESIAN_POINT ( 'NONE',  ( -250.9547956651487100, 0.0000000000000000000, -10.00000000000000400 ) ) ;
#195 = CARTESIAN_POINT ( 'NONE',  ( 0.0000000000000000000, 0.0000000000000000000, 0.0000000000000000000 ) ) ;
#196 = EDGE_CURVE ( 'NONE', #178, #45, #153, .T. ) ;
#197 = CARTESIAN_POINT ( 'NONE',  ( -250.9547956651487100, 20.00000000000000000, 10.00000000000000000 ) ) ;
#198 = ORIENTED_EDGE ( 'NONE', *, *, #85, .F. ) ;
#199 = CARTESIAN_POINT ( 'NONE',  ( -253.9512996483044300, 0.0000000000000000000, 10.00000000000000000 ) ) ;
#200 = CARTESIAN_POINT ( 'NONE',  ( 4.355204334851265500, 0.0000000000000000000, 4.286263797015675000E-017 ) ) ;
#201 = VECTOR ( 'NONE', #186, 1000.000000000000000 ) ;
#202 = EDGE_CURVE ( 'NONE', #92, #178, #26, .T. ) ;
#203 = CARTESIAN_POINT ( 'NONE',  ( -253.9512996483044300, 20.00000000000000000, 10.00000000000000000 ) ) ;
#204 = FACE_OUTER_BOUND ( 'NONE', #122, .T. ) ;
ENDSEC;
END-ISO-10303-21;
