ISO-10303-21;
HEADER;
FILE_DESCRIPTION (( 'STEP AP214' ),
    '1' );
FILE_NAME ('155053.STEP',
    '2019-06-18T06:25:04',
    ( 'user' ),
    ( 'Î¢ÈíÖÐ¹ú' ),
    'SwSTEP 2.0',
    'SolidWorks 2016',
    '' );
FILE_SCHEMA (( 'AUTOMOTIVE_DESIGN' ));
ENDSEC;

DATA;
#1 = DIRECTION ( 'NONE',  ( 1.000000000000000000, 0.0000000000000000000, 0.0000000000000000000 ) ) ;
#2 =( NAMED_UNIT ( * ) PLANE_ANGLE_UNIT ( ) SI_UNIT ( $, .RADIAN. ) );
#3 = ORIENTED_EDGE ( 'NONE', *, *, #154, .T. ) ;
#4 = CARTESIAN_POINT ( 'NONE',  ( -147.4247956651487400, 40.00000000000000000, -10.00000000000000400 ) ) ;
#5 = AXIS2_PLACEMENT_3D ( 'NONE', #157, #101, #20 ) ;
#6 = DIRECTION ( 'NONE',  ( -1.000000000000000000, -0.0000000000000000000, 1.157527326795462800E-015 ) ) ;
#7 =( GEOMETRIC_REPRESENTATION_CONTEXT ( 3 ) GLOBAL_UNCERTAINTY_ASSIGNED_CONTEXT ( ( #56 ) ) GLOBAL_UNIT_ASSIGNED_CONTEXT ( ( #196, #77, #67 ) ) REPRESENTATION_CONTEXT ( 'NONE', 'WORKASPACE' ) );
#8 = ORIENTED_EDGE ( 'NONE', *, *, #177, .T. ) ;
#9 = DIRECTION ( 'NONE',  ( 0.0000000000000000000, 0.0000000000000000000, 1.000000000000000000 ) ) ;
#10 = CARTESIAN_POINT ( 'NONE',  ( 4.355204334851265500, 40.00000000000000000, 4.286263797015675000E-017 ) ) ;
#11 = UNCERTAINTY_MEASURE_WITH_UNIT (LENGTH_MEASURE( 1.000000000000000100E-005 ), #188, 'distance_accuracy_value', 'NONE');
#12 = CARTESIAN_POINT ( 'NONE',  ( -150.4220872811994200, 40.00000000000000000, -10.00000000000000000 ) ) ;
#13 = MECHANICAL_DESIGN_GEOMETRIC_PRESENTATION_REPRESENTATION (  '', ( #99 ), #7 ) ;
#14 = ORIENTED_EDGE ( 'NONE', *, *, #181, .T. ) ;
#15 = DIRECTION ( 'NONE',  ( 0.0000000000000000000, 0.0000000000000000000, 1.000000000000000000 ) ) ;
#16 = ORIENTED_EDGE ( 'NONE', *, *, #181, .F. ) ;
#17 = PRESENTATION_LAYER_ASSIGNMENT (  '', '', ( #102 ) ) ;
#18 = CARTESIAN_POINT ( 'NONE',  ( -150.4220872811994200, 0.0000000000000000000, -10.00000000000000000 ) ) ;
#19 = ADVANCED_FACE ( 'NONE', ( #184 ), #92, .F. ) ;
#20 = DIRECTION ( 'NONE',  ( -1.000000000000000000, 0.0000000000000000000, -0.0000000000000000000 ) ) ;
#21 = ORIENTED_EDGE ( 'NONE', *, *, #178, .T. ) ;
#22 = MECHANICAL_DESIGN_GEOMETRIC_PRESENTATION_REPRESENTATION (  '', ( #102 ), #41 ) ;
#23 = CARTESIAN_POINT ( 'NONE',  ( 4.355204334851265500, 0.0000000000000000000, 4.286263797015675000E-017 ) ) ;
#24 = DIRECTION ( 'NONE',  ( -0.0000000000000000000, -1.000000000000000000, -0.0000000000000000000 ) ) ;
#25 = CARTESIAN_POINT ( 'NONE',  ( -150.4220872811994200, 40.00000000000000000, 10.00000000000000000 ) ) ;
#26 = ORIENTED_EDGE ( 'NONE', *, *, #199, .T. ) ;
#27 = ADVANCED_FACE ( 'NONE', ( #148 ), #85, .T. ) ;
#28 = DIRECTION ( 'NONE',  ( 0.0000000000000000000, -0.0000000000000000000, 1.000000000000000000 ) ) ;
#29 = AXIS2_PLACEMENT_3D ( 'NONE', #98, #193, #176 ) ;
#30 = ORIENTED_EDGE ( 'NONE', *, *, #119, .T. ) ;
#31 = VECTOR ( 'NONE', #62, 1000.000000000000000 ) ;
#32 = DIRECTION ( 'NONE',  ( -0.0000000000000000000, -0.0000000000000000000, -1.000000000000000000 ) ) ;
#33 = PRODUCT_DEFINITION ( 'Î´Öª', '', #190, #143 ) ;
#34 = VECTOR ( 'NONE', #24, 1000.000000000000000 ) ;
#35 = ADVANCED_FACE ( 'NONE', ( #80 ), #137, .F. ) ;
#36 = CARTESIAN_POINT ( 'NONE',  ( -150.4220872811994200, 40.00000000000000000, -10.00000000000000000 ) ) ;
#37 = EDGE_LOOP ( 'NONE', ( #8, #121, #16, #21 ) ) ;
#38 = EDGE_CURVE ( 'NONE', #168, #63, #164, .T. ) ;
#39 = EDGE_LOOP ( 'NONE', ( #30, #49, #141, #104 ) ) ;
#40 = SURFACE_SIDE_STYLE ('',( #93 ) ) ;
#41 =( GEOMETRIC_REPRESENTATION_CONTEXT ( 3 ) GLOBAL_UNCERTAINTY_ASSIGNED_CONTEXT ( ( #11 ) ) GLOBAL_UNIT_ASSIGNED_CONTEXT ( ( #188, #103, #198 ) ) REPRESENTATION_CONTEXT ( 'NONE', 'WORKASPACE' ) );
#42 = LINE ( 'NONE', #74, #200 ) ;
#43 = FILL_AREA_STYLE ('',( #106 ) ) ;
#44 = EDGE_CURVE ( 'NONE', #203, #57, #100, .T. ) ;
#45 = VERTEX_POINT ( 'NONE', #170 ) ;
#46 = ORIENTED_EDGE ( 'NONE', *, *, #178, .F. ) ;
#47 = COLOUR_RGB ( '',1.000000000000000000, 1.000000000000000000, 1.000000000000000000 ) ;
#48 = COLOUR_RGB ( '',1.000000000000000000, 1.000000000000000000, 1.000000000000000000 ) ;
#49 = ORIENTED_EDGE ( 'NONE', *, *, #64, .F. ) ;
#50 = ADVANCED_FACE ( 'NONE', ( #175 ), #156, .F. ) ;
#51 = EDGE_LOOP ( 'NONE', ( #3, #46, #191, #88 ) ) ;
#52 = CARTESIAN_POINT ( 'NONE',  ( -150.4220872811994200, 40.00000000000000000, 10.00000000000000000 ) ) ;
#53 = DIRECTION ( 'NONE',  ( 0.0000000000000000000, 0.0000000000000000000, 1.000000000000000000 ) ) ;
#54 = PRODUCT_RELATED_PRODUCT_CATEGORY ( 'part', '', ( #122 ) ) ;
#55 = APPLICATION_CONTEXT ( 'automotive_design' ) ;
#56 = UNCERTAINTY_MEASURE_WITH_UNIT (LENGTH_MEASURE( 1.000000000000000100E-005 ), #196, 'distance_accuracy_value', 'NONE');
#57 = VERTEX_POINT ( 'NONE', #163 ) ;
#58 =( GEOMETRIC_REPRESENTATION_CONTEXT ( 3 ) GLOBAL_UNCERTAINTY_ASSIGNED_CONTEXT ( ( #146 ) ) GLOBAL_UNIT_ASSIGNED_CONTEXT ( ( #110, #2, #79 ) ) REPRESENTATION_CONTEXT ( 'NONE', 'WORKASPACE' ) );
#59 = CARTESIAN_POINT ( 'NONE',  ( -150.4220872811994200, 0.0000000000000000000, 10.00000000000000000 ) ) ;
#60 = DIRECTION ( 'NONE',  ( 1.000000000000000000, 0.0000000000000000000, 0.0000000000000000000 ) ) ;
#61 = SURFACE_STYLE_USAGE ( .BOTH. , #40 ) ;
#62 = DIRECTION ( 'NONE',  ( -1.000000000000000000, -0.0000000000000000000, 1.157527326795462800E-015 ) ) ;
#63 = VERTEX_POINT ( 'NONE', #125 ) ;
#64 = EDGE_CURVE ( 'NONE', #203, #45, #171, .T. ) ;
#65 = ORIENTED_EDGE ( 'NONE', *, *, #151, .T. ) ;
#66 = DIRECTION ( 'NONE',  ( 0.0000000000000000000, 1.000000000000000000, 0.0000000000000000000 ) ) ;
#67 =( NAMED_UNIT ( * ) SI_UNIT ( $, .STERADIAN. ) SOLID_ANGLE_UNIT ( ) );
#68 = FACE_OUTER_BOUND ( 'NONE', #39, .T. ) ;
#69 = CARTESIAN_POINT ( 'NONE',  ( -147.4247956651487400, 40.00000000000000000, -10.00000000000000400 ) ) ;
#70 = LINE ( 'NONE', #12, #31 ) ;
#71 = FILL_AREA_STYLE ('',( #182 ) ) ;
#72 = LINE ( 'NONE', #140, #34 ) ;
#73 = VERTEX_POINT ( 'NONE', #59 ) ;
#74 = CARTESIAN_POINT ( 'NONE',  ( -150.4220872811994200, 0.0000000000000000000, 10.00000000000000000 ) ) ;
#75 = DIRECTION ( 'NONE',  ( 0.0000000000000000000, 1.000000000000000000, 0.0000000000000000000 ) ) ;
#76 = AXIS2_PLACEMENT_3D ( 'NONE', #84, #9, #1 ) ;
#77 =( NAMED_UNIT ( * ) PLANE_ANGLE_UNIT ( ) SI_UNIT ( $, .RADIAN. ) );
#78 = FACE_OUTER_BOUND ( 'NONE', #51, .T. ) ;
#79 =( NAMED_UNIT ( * ) SI_UNIT ( $, .STERADIAN. ) SOLID_ANGLE_UNIT ( ) );
#80 = FACE_OUTER_BOUND ( 'NONE', #81, .T. ) ;
#81 = EDGE_LOOP ( 'NONE', ( #89, #131, #161, #186 ) ) ;
#82 = SURFACE_STYLE_FILL_AREA ( #43 ) ;
#83 = DIRECTION ( 'NONE',  ( -0.0000000000000000000, -1.000000000000000000, -0.0000000000000000000 ) ) ;
#84 = CARTESIAN_POINT ( 'NONE',  ( 0.0000000000000000000, 0.0000000000000000000, 0.0000000000000000000 ) ) ;
#85 = PLANE ( 'NONE',  #138 ) ;
#86 = DIRECTION ( 'NONE',  ( 1.000000000000000000, 0.0000000000000000000, -1.157527326795462800E-015 ) ) ;
#87 = AXIS2_PLACEMENT_3D ( 'NONE', #185, #155, #111 ) ;
#88 = ORIENTED_EDGE ( 'NONE', *, *, #64, .T. ) ;
#89 = ORIENTED_EDGE ( 'NONE', *, *, #154, .F. ) ;
#90 = LINE ( 'NONE', #25, #169 ) ;
#91 = APPLICATION_PROTOCOL_DEFINITION ( 'draft international standard', 'automotive_design', 1998, #55 ) ;
#92 = PLANE ( 'NONE',  #187 ) ;
#93 = SURFACE_STYLE_FILL_AREA ( #71 ) ;
#94 = SURFACE_SIDE_STYLE ('',( #82 ) ) ;
#95 = AXIS2_PLACEMENT_3D ( 'NONE', #136, #162, #86 ) ;
#96 = CIRCLE ( 'NONE', #87, 155.0999999999999900 ) ;
#97 = CARTESIAN_POINT ( 'NONE',  ( -150.4220872811994200, 40.00000000000000000, -10.00000000000000000 ) ) ;
#98 = CARTESIAN_POINT ( 'NONE',  ( 4.355204334851265500, 40.00000000000000000, 4.286263797015675000E-017 ) ) ;
#99 = STYLED_ITEM ( 'NONE', ( #114 ), #202 ) ;
#100 = CIRCLE ( 'NONE', #172, 155.0999999999999900 ) ;
#101 = DIRECTION ( 'NONE',  ( 0.0000000000000000000, 0.0000000000000000000, -1.000000000000000000 ) ) ;
#102 = STYLED_ITEM ( 'NONE', ( #144 ), #195 ) ;
#103 =( NAMED_UNIT ( * ) PLANE_ANGLE_UNIT ( ) SI_UNIT ( $, .RADIAN. ) );
#104 = ORIENTED_EDGE ( 'NONE', *, *, #201, .T. ) ;
#105 = DIRECTION ( 'NONE',  ( 0.0000000000000000000, 1.000000000000000000, 0.0000000000000000000 ) ) ;
#106 = FILL_AREA_STYLE_COLOUR ( '', #47 ) ;
#107 = CARTESIAN_POINT ( 'NONE',  ( -147.4247956651487400, 0.0000000000000000000, -10.00000000000000400 ) ) ;
#108 = LINE ( 'NONE', #52, #130 ) ;
#109 = PLANE ( 'NONE',  #95 ) ;
#110 =( LENGTH_UNIT ( ) NAMED_UNIT ( * ) SI_UNIT ( .MILLI., .METRE. ) );
#111 = DIRECTION ( 'NONE',  ( 0.0000000000000000000, 0.0000000000000000000, 1.000000000000000000 ) ) ;
#112 = LINE ( 'NONE', #18, #116 ) ;
#113 = CARTESIAN_POINT ( 'NONE',  ( 4.355204334851265500, 40.00000000000000000, 4.286263797015675000E-017 ) ) ;
#114 = PRESENTATION_STYLE_ASSIGNMENT (( #61 ) ) ;
#115 = DIRECTION ( 'NONE',  ( -1.000000000000000000, 0.0000000000000000000, 0.0000000000000000000 ) ) ;
#116 = VECTOR ( 'NONE', #6, 1000.000000000000000 ) ;
#117 = DIRECTION ( 'NONE',  ( -0.0000000000000000000, -0.0000000000000000000, -1.000000000000000000 ) ) ;
#118 = EDGE_LOOP ( 'NONE', ( #158, #14, #126, #120 ) ) ;
#119 = EDGE_CURVE ( 'NONE', #204, #45, #112, .T. ) ;
#120 = ORIENTED_EDGE ( 'NONE', *, *, #127, .T. ) ;
#121 = ORIENTED_EDGE ( 'NONE', *, *, #151, .F. ) ;
#122 = PRODUCT ( '155053', '155053', '', ( #167 ) ) ;
#123 = DIRECTION ( 'NONE',  ( 1.000000000000000000, 0.0000000000000000000, 0.0000000000000000000 ) ) ;
#124 = ADVANCED_FACE ( 'NONE', ( #68 ), #109, .F. ) ;
#125 = CARTESIAN_POINT ( 'NONE',  ( -147.4247956651487400, 40.00000000000000000, -10.00000000000000400 ) ) ;
#126 = ORIENTED_EDGE ( 'NONE', *, *, #38, .T. ) ;
#127 = EDGE_CURVE ( 'NONE', #63, #203, #70, .T. ) ;
#128 = LINE ( 'NONE', #107, #133 ) ;
#129 = DIRECTION ( 'NONE',  ( -0.0000000000000000000, -1.000000000000000000, -0.0000000000000000000 ) ) ;
#130 = VECTOR ( 'NONE', #83, 1000.000000000000000 ) ;
#131 = ORIENTED_EDGE ( 'NONE', *, *, #119, .F. ) ;
#132 = ORIENTED_EDGE ( 'NONE', *, *, #38, .F. ) ;
#133 = VECTOR ( 'NONE', #117, 1000.000000000000000 ) ;
#134 = DIRECTION ( 'NONE',  ( 0.0000000000000000000, -0.0000000000000000000, 1.000000000000000000 ) ) ;
#135 = VECTOR ( 'NONE', #139, 1000.000000000000000 ) ;
#136 = CARTESIAN_POINT ( 'NONE',  ( -150.4220872811994200, 40.00000000000000000, -10.00000000000000000 ) ) ;
#137 = PLANE ( 'NONE',  #160 ) ;
#138 = AXIS2_PLACEMENT_3D ( 'NONE', #113, #66, #134 ) ;
#139 = DIRECTION ( 'NONE',  ( -0.0000000000000000000, -1.000000000000000000, -0.0000000000000000000 ) ) ;
#140 = CARTESIAN_POINT ( 'NONE',  ( -147.4247956651487400, 40.00000000000000000, -10.00000000000000400 ) ) ;
#141 = ORIENTED_EDGE ( 'NONE', *, *, #127, .F. ) ;
#142 = CARTESIAN_POINT ( 'NONE',  ( -147.4247956651487400, 0.0000000000000000000, -10.00000000000000400 ) ) ;
#143 = PRODUCT_DEFINITION_CONTEXT ( 'detailed design', #55, 'design' ) ;
#144 = PRESENTATION_STYLE_ASSIGNMENT (( #153 ) ) ;
#145 = CARTESIAN_POINT ( 'NONE',  ( -147.4247956651487400, 40.00000000000000000, 10.00000000000000000 ) ) ;
#146 = UNCERTAINTY_MEASURE_WITH_UNIT (LENGTH_MEASURE( 1.000000000000000100E-005 ), #110, 'distance_accuracy_value', 'NONE');
#147 = ORIENTED_EDGE ( 'NONE', *, *, #201, .F. ) ;
#148 = FACE_OUTER_BOUND ( 'NONE', #118, .T. ) ;
#149 = SHAPE_DEFINITION_REPRESENTATION ( #183, #195 ) ;
#150 = EDGE_LOOP ( 'NONE', ( #26, #147, #132, #65 ) ) ;
#151 = EDGE_CURVE ( 'NONE', #168, #174, #189, .T. ) ;
#152 = ADVANCED_FACE ( 'NONE', ( #78 ), #159, .T. ) ;
#153 = SURFACE_STYLE_USAGE ( .BOTH. , #94 ) ;
#154 = EDGE_CURVE ( 'NONE', #45, #73, #96, .T. ) ;
#155 = DIRECTION ( 'NONE',  ( 0.0000000000000000000, 1.000000000000000000, 0.0000000000000000000 ) ) ;
#156 = PLANE ( 'NONE',  #5 ) ;
#157 = CARTESIAN_POINT ( 'NONE',  ( -150.4220872811994200, 40.00000000000000000, 10.00000000000000000 ) ) ;
#158 = ORIENTED_EDGE ( 'NONE', *, *, #44, .T. ) ;
#159 = CYLINDRICAL_SURFACE ( 'NONE', #29, 155.0999999999999900 ) ;
#160 = AXIS2_PLACEMENT_3D ( 'NONE', #23, #105, #28 ) ;
#161 = ORIENTED_EDGE ( 'NONE', *, *, #199, .F. ) ;
#162 = DIRECTION ( 'NONE',  ( 1.157527326795462800E-015, -0.0000000000000000000, 1.000000000000000000 ) ) ;
#163 = CARTESIAN_POINT ( 'NONE',  ( -150.4220872811994200, 40.00000000000000000, 10.00000000000000000 ) ) ;
#164 = LINE ( 'NONE', #4, #194 ) ;
#165 = APPLICATION_PROTOCOL_DEFINITION ( 'draft international standard', 'automotive_design', 1998, #192 ) ;
#166 = PRESENTATION_LAYER_ASSIGNMENT (  '', '', ( #99 ) ) ;
#167 = PRODUCT_CONTEXT ( 'NONE', #192, 'mechanical' ) ;
#168 = VERTEX_POINT ( 'NONE', #145 ) ;
#169 = VECTOR ( 'NONE', #123, 1000.000000000000000 ) ;
#170 = CARTESIAN_POINT ( 'NONE',  ( -150.4220872811994200, 0.0000000000000000000, -10.00000000000000000 ) ) ;
#171 = LINE ( 'NONE', #36, #135 ) ;
#172 = AXIS2_PLACEMENT_3D ( 'NONE', #10, #75, #15 ) ;
#173 = CARTESIAN_POINT ( 'NONE',  ( -147.4247956651487400, 40.00000000000000000, 10.00000000000000000 ) ) ;
#174 = VERTEX_POINT ( 'NONE', #179 ) ;
#175 = FACE_OUTER_BOUND ( 'NONE', #37, .T. ) ;
#176 = DIRECTION ( 'NONE',  ( 0.0000000000000000000, 0.0000000000000000000, -1.000000000000000000 ) ) ;
#177 = EDGE_CURVE ( 'NONE', #73, #174, #42, .T. ) ;
#178 = EDGE_CURVE ( 'NONE', #57, #73, #108, .T. ) ;
#179 = CARTESIAN_POINT ( 'NONE',  ( -147.4247956651487400, 0.0000000000000000000, 10.00000000000000000 ) ) ;
#180 = CLOSED_SHELL ( 'NONE', ( #152, #50, #19, #124, #27, #35 ) ) ;
#181 = EDGE_CURVE ( 'NONE', #57, #168, #90, .T. ) ;
#182 = FILL_AREA_STYLE_COLOUR ( '', #48 ) ;
#183 = PRODUCT_DEFINITION_SHAPE ( 'NONE', 'NONE',  #33 ) ;
#184 = FACE_OUTER_BOUND ( 'NONE', #150, .T. ) ;
#185 = CARTESIAN_POINT ( 'NONE',  ( 4.355204334851265500, 0.0000000000000000000, 4.286263797015675000E-017 ) ) ;
#186 = ORIENTED_EDGE ( 'NONE', *, *, #177, .F. ) ;
#187 = AXIS2_PLACEMENT_3D ( 'NONE', #69, #115, #53 ) ;
#188 =( LENGTH_UNIT ( ) NAMED_UNIT ( * ) SI_UNIT ( .MILLI., .METRE. ) );
#189 = LINE ( 'NONE', #173, #197 ) ;
#190 = PRODUCT_DEFINITION_FORMATION_WITH_SPECIFIED_SOURCE ( 'ÈÎºÎ', '', #122, .NOT_KNOWN. ) ;
#191 = ORIENTED_EDGE ( 'NONE', *, *, #44, .F. ) ;
#192 = APPLICATION_CONTEXT ( 'automotive_design' ) ;
#193 = DIRECTION ( 'NONE',  ( -0.0000000000000000000, -1.000000000000000000, -0.0000000000000000000 ) ) ;
#194 = VECTOR ( 'NONE', #32, 1000.000000000000000 ) ;
#195 = ADVANCED_BREP_SHAPE_REPRESENTATION ( '155053', ( #202, #76 ), #58 ) ;
#196 =( LENGTH_UNIT ( ) NAMED_UNIT ( * ) SI_UNIT ( .MILLI., .METRE. ) );
#197 = VECTOR ( 'NONE', #129, 1000.000000000000000 ) ;
#198 =( NAMED_UNIT ( * ) SI_UNIT ( $, .STERADIAN. ) SOLID_ANGLE_UNIT ( ) );
#199 = EDGE_CURVE ( 'NONE', #174, #204, #128, .T. ) ;
#200 = VECTOR ( 'NONE', #60, 1000.000000000000000 ) ;
#201 = EDGE_CURVE ( 'NONE', #63, #204, #72, .T. ) ;
#202 = MANIFOLD_SOLID_BREP ( 'Í¹Ì¨-À­Éì1', #180 ) ;
#203 = VERTEX_POINT ( 'NONE', #97 ) ;
#204 = VERTEX_POINT ( 'NONE', #142 ) ;
ENDSEC;
END-ISO-10303-21;
