ISO-10303-21;
HEADER;
FILE_DESCRIPTION (( 'STEP AP214' ),
    '1' );
FILE_NAME ('155024.STEP',
    '2019-06-17T05:45:32',
    ( 'user' ),
    ( 'Î¢ÈíÖÐ¹ú' ),
    'SwSTEP 2.0',
    'SolidWorks 2016',
    '' );
FILE_SCHEMA (( 'AUTOMOTIVE_DESIGN' ));
ENDSEC;

DATA;
#1 =( GEOMETRIC_REPRESENTATION_CONTEXT ( 3 ) GLOBAL_UNCERTAINTY_ASSIGNED_CONTEXT ( ( #36 ) ) GLOBAL_UNIT_ASSIGNED_CONTEXT ( ( #153, #197, #163 ) ) REPRESENTATION_CONTEXT ( 'NONE', 'WORKASPACE' ) );
#2 =( NAMED_UNIT ( * ) SI_UNIT ( $, .STERADIAN. ) SOLID_ANGLE_UNIT ( ) );
#3 = EDGE_CURVE ( 'NONE', #13, #91, #149, .T. ) ;
#4 = CARTESIAN_POINT ( 'NONE',  ( 4.355204334851265500, 20.00000000000000000, 4.286263797015675000E-017 ) ) ;
#5 = CARTESIAN_POINT ( 'NONE',  ( 0.1086056959403334800, 20.00000000000000000, -5.000000000000000000 ) ) ;
#6 = EDGE_CURVE ( 'NONE', #94, #13, #137, .T. ) ;
#7 = CARTESIAN_POINT ( 'NONE',  ( 4.355204334851265500, 20.00000000000000000, 4.286263797015675000E-017 ) ) ;
#8 = FACE_OUTER_BOUND ( 'NONE', #128, .T. ) ;
#9 = VERTEX_POINT ( 'NONE', #120 ) ;
#10 = ORIENTED_EDGE ( 'NONE', *, *, #3, .T. ) ;
#11 = EDGE_CURVE ( 'NONE', #9, #181, #151, .T. ) ;
#12 = CARTESIAN_POINT ( 'NONE',  ( 0.1086056959403334800, 0.0000000000000000000, -5.000000000000000000 ) ) ;
#13 = VERTEX_POINT ( 'NONE', #12 ) ;
#14 = EDGE_LOOP ( 'NONE', ( #115, #165, #190, #18 ) ) ;
#15 = PLANE ( 'NONE',  #127 ) ;
#16 = ORIENTED_EDGE ( 'NONE', *, *, #102, .F. ) ;
#17 = PLANE ( 'NONE',  #183 ) ;
#18 = ORIENTED_EDGE ( 'NONE', *, *, #113, .T. ) ;
#19 = LINE ( 'NONE', #23, #25 ) ;
#20 =( NAMED_UNIT ( * ) PLANE_ANGLE_UNIT ( ) SI_UNIT ( $, .RADIAN. ) );
#21 = SURFACE_STYLE_USAGE ( .BOTH. , #71 ) ;
#22 = VECTOR ( 'NONE', #104, 1000.000000000000000 ) ;
#23 = CARTESIAN_POINT ( 'NONE',  ( 0.1086056959403334800, 0.0000000000000000000, -5.000000000000000000 ) ) ;
#24 = FACE_OUTER_BOUND ( 'NONE', #125, .T. ) ;
#25 = VECTOR ( 'NONE', #122, 1000.000000000000000 ) ;
#26 = ORIENTED_EDGE ( 'NONE', *, *, #161, .F. ) ;
#27 = EDGE_CURVE ( 'NONE', #94, #178, #152, .T. ) ;
#28 = LINE ( 'NONE', #76, #34 ) ;
#29 = EDGE_CURVE ( 'NONE', #133, #181, #130, .T. ) ;
#30 =( LENGTH_UNIT ( ) NAMED_UNIT ( * ) SI_UNIT ( .MILLI., .METRE. ) );
#31 = COLOUR_RGB ( '',1.000000000000000000, 1.000000000000000000, 1.000000000000000000 ) ;
#32 = DIRECTION ( 'NONE',  ( -1.000000000000000000, 0.0000000000000000000, 3.035766082959412400E-016 ) ) ;
#33 =( NAMED_UNIT ( * ) SI_UNIT ( $, .STERADIAN. ) SOLID_ANGLE_UNIT ( ) );
#34 = VECTOR ( 'NONE', #85, 1000.000000000000000 ) ;
#35 = CARTESIAN_POINT ( 'NONE',  ( 0.0000000000000000000, 0.0000000000000000000, 0.0000000000000000000 ) ) ;
#36 = UNCERTAINTY_MEASURE_WITH_UNIT (LENGTH_MEASURE( 1.000000000000000100E-005 ), #153, 'distance_accuracy_value', 'NONE');
#37 = PRODUCT_DEFINITION ( 'Î´Öª', '', #58, #169 ) ;
#38 = DIRECTION ( 'NONE',  ( 0.0000000000000000000, -0.0000000000000000000, 1.000000000000000000 ) ) ;
#39 = ORIENTED_EDGE ( 'NONE', *, *, #102, .T. ) ;
#40 = DIRECTION ( 'NONE',  ( 0.0000000000000000000, 1.000000000000000000, 0.0000000000000000000 ) ) ;
#41 = ORIENTED_EDGE ( 'NONE', *, *, #11, .F. ) ;
#42 = LINE ( 'NONE', #74, #48 ) ;
#43 = PRESENTATION_LAYER_ASSIGNMENT (  '', '', ( #89 ) ) ;
#44 = FACE_OUTER_BOUND ( 'NONE', #159, .T. ) ;
#45 = ADVANCED_FACE ( 'NONE', ( #109 ), #15, .T. ) ;
#46 = DIRECTION ( 'NONE',  ( 0.0000000000000000000, -0.0000000000000000000, 1.000000000000000000 ) ) ;
#47 = FILL_AREA_STYLE ('',( #188 ) ) ;
#48 = VECTOR ( 'NONE', #139, 1000.000000000000000 ) ;
#49 = ORIENTED_EDGE ( 'NONE', *, *, #131, .F. ) ;
#50 = DIRECTION ( 'NONE',  ( 0.0000000000000000000, 1.000000000000000000, 0.0000000000000000000 ) ) ;
#51 = LINE ( 'NONE', #138, #22 ) ;
#52 = DIRECTION ( 'NONE',  ( 3.035766082959412400E-016, 0.0000000000000000000, 1.000000000000000000 ) ) ;
#53 = ORIENTED_EDGE ( 'NONE', *, *, #83, .T. ) ;
#54 = VECTOR ( 'NONE', #198, 1000.000000000000000 ) ;
#55 = DIRECTION ( 'NONE',  ( 0.0000000000000000000, 0.0000000000000000000, 1.000000000000000000 ) ) ;
#56 = FACE_OUTER_BOUND ( 'NONE', #136, .T. ) ;
#57 = DIRECTION ( 'NONE',  ( 0.0000000000000000000, 0.0000000000000000000, -1.000000000000000000 ) ) ;
#58 = PRODUCT_DEFINITION_FORMATION_WITH_SPECIFIED_SOURCE ( 'ÈÎºÎ', '', #193, .NOT_KNOWN. ) ;
#59 = ORIENTED_EDGE ( 'NONE', *, *, #3, .F. ) ;
#60 = DIRECTION ( 'NONE',  ( -1.000000000000000000, 0.0000000000000000000, -0.0000000000000000000 ) ) ;
#61 = LINE ( 'NONE', #73, #72 ) ;
#62 = LINE ( 'NONE', #5, #54 ) ;
#63 = VECTOR ( 'NONE', #185, 1000.000000000000000 ) ;
#64 = PRODUCT_RELATED_PRODUCT_CATEGORY ( 'part', '', ( #193 ) ) ;
#65 = CARTESIAN_POINT ( 'NONE',  ( 2.105204334851263200, 20.00000000000000000, -5.000000000000000000 ) ) ;
#66 = FACE_OUTER_BOUND ( 'NONE', #162, .T. ) ;
#67 = LINE ( 'NONE', #105, #63 ) ;
#68 = CARTESIAN_POINT ( 'NONE',  ( 0.1086056959403334800, 20.00000000000000000, -5.000000000000000000 ) ) ;
#69 = CARTESIAN_POINT ( 'NONE',  ( 2.105204334851263200, 0.0000000000000000000, -5.000000000000000000 ) ) ;
#70 = MANIFOLD_SOLID_BREP ( 'Í¹Ì¨-À­Éì1', #123 ) ;
#71 = SURFACE_SIDE_STYLE ('',( #117 ) ) ;
#72 = VECTOR ( 'NONE', #155, 1000.000000000000000 ) ;
#73 = CARTESIAN_POINT ( 'NONE',  ( 0.1086056959403334800, 20.00000000000000000, 5.000000000000000000 ) ) ;
#74 = CARTESIAN_POINT ( 'NONE',  ( 2.105204334851266300, 20.00000000000000000, 5.000000000000000000 ) ) ;
#75 = ORIENTED_EDGE ( 'NONE', *, *, #80, .F. ) ;
#76 = CARTESIAN_POINT ( 'NONE',  ( 2.105204334851263200, 20.00000000000000000, -5.000000000000000000 ) ) ;
#77 = ORIENTED_EDGE ( 'NONE', *, *, #113, .F. ) ;
#78 = AXIS2_PLACEMENT_3D ( 'NONE', #35, #112, #119 ) ;
#79 = SURFACE_STYLE_USAGE ( .BOTH. , #166 ) ;
#80 = EDGE_CURVE ( 'NONE', #178, #144, #67, .T. ) ;
#81 = AXIS2_PLACEMENT_3D ( 'NONE', #184, #40, #87 ) ;
#82 = DIRECTION ( 'NONE',  ( 0.0000000000000000000, 0.0000000000000000000, 1.000000000000000000 ) ) ;
#83 = EDGE_CURVE ( 'NONE', #178, #91, #61, .T. ) ;
#84 = ORIENTED_EDGE ( 'NONE', *, *, #6, .T. ) ;
#85 = DIRECTION ( 'NONE',  ( -3.035766082959412400E-016, -0.0000000000000000000, -1.000000000000000000 ) ) ;
#86 = ORIENTED_EDGE ( 'NONE', *, *, #29, .T. ) ;
#87 = DIRECTION ( 'NONE',  ( 0.0000000000000000000, 0.0000000000000000000, 1.000000000000000000 ) ) ;
#88 = ORIENTED_EDGE ( 'NONE', *, *, #6, .F. ) ;
#89 = STYLED_ITEM ( 'NONE', ( #140 ), #96 ) ;
#90 = SHAPE_DEFINITION_REPRESENTATION ( #103, #96 ) ;
#91 = VERTEX_POINT ( 'NONE', #93 ) ;
#92 = ADVANCED_FACE ( 'NONE', ( #66 ), #17, .F. ) ;
#93 = CARTESIAN_POINT ( 'NONE',  ( 0.1086056959403334800, 0.0000000000000000000, 5.000000000000000000 ) ) ;
#94 = VERTEX_POINT ( 'NONE', #171 ) ;
#95 =( NAMED_UNIT ( * ) PLANE_ANGLE_UNIT ( ) SI_UNIT ( $, .RADIAN. ) );
#96 = ADVANCED_BREP_SHAPE_REPRESENTATION ( '155024', ( #70, #78 ), #194 ) ;
#97 = DIRECTION ( 'NONE',  ( 0.0000000000000000000, 1.000000000000000000, 0.0000000000000000000 ) ) ;
#98 = PLANE ( 'NONE',  #192 ) ;
#99 = MECHANICAL_DESIGN_GEOMETRIC_PRESENTATION_REPRESENTATION (  '', ( #106 ), #160 ) ;
#100 = DIRECTION ( 'NONE',  ( 1.000000000000000000, 0.0000000000000000000, -0.0000000000000000000 ) ) ;
#101 = APPLICATION_PROTOCOL_DEFINITION ( 'draft international standard', 'automotive_design', 1998, #201 ) ;
#102 = EDGE_CURVE ( 'NONE', #144, #133, #42, .T. ) ;
#103 = PRODUCT_DEFINITION_SHAPE ( 'NONE', 'NONE',  #37 ) ;
#104 = DIRECTION ( 'NONE',  ( 1.000000000000000000, 0.0000000000000000000, 0.0000000000000000000 ) ) ;
#105 = CARTESIAN_POINT ( 'NONE',  ( 0.1086056959403334800, 20.00000000000000000, 5.000000000000000000 ) ) ;
#106 = STYLED_ITEM ( 'NONE', ( #135 ), #70 ) ;
#107 = COLOUR_RGB ( '',1.000000000000000000, 1.000000000000000000, 1.000000000000000000 ) ;
#108 = ADVANCED_FACE ( 'NONE', ( #56 ), #175, .F. ) ;
#109 = FACE_OUTER_BOUND ( 'NONE', #14, .T. ) ;
#110 = VECTOR ( 'NONE', #186, 1000.000000000000000 ) ;
#111 = AXIS2_PLACEMENT_3D ( 'NONE', #4, #177, #57 ) ;
#112 = DIRECTION ( 'NONE',  ( 0.0000000000000000000, 0.0000000000000000000, 1.000000000000000000 ) ) ;
#113 = EDGE_CURVE ( 'NONE', #9, #94, #62, .T. ) ;
#114 = DIRECTION ( 'NONE',  ( -0.0000000000000000000, -1.000000000000000000, -0.0000000000000000000 ) ) ;
#115 = ORIENTED_EDGE ( 'NONE', *, *, #27, .T. ) ;
#116 =( LENGTH_UNIT ( ) NAMED_UNIT ( * ) SI_UNIT ( .MILLI., .METRE. ) );
#117 = SURFACE_STYLE_FILL_AREA ( #200 ) ;
#118 = PRODUCT_CONTEXT ( 'NONE', #126, 'mechanical' ) ;
#119 = DIRECTION ( 'NONE',  ( 1.000000000000000000, 0.0000000000000000000, 0.0000000000000000000 ) ) ;
#120 = CARTESIAN_POINT ( 'NONE',  ( 2.105204334851263200, 20.00000000000000000, -5.000000000000000000 ) ) ;
#121 = VECTOR ( 'NONE', #196, 1000.000000000000000 ) ;
#122 = DIRECTION ( 'NONE',  ( -1.000000000000000000, -0.0000000000000000000, -0.0000000000000000000 ) ) ;
#123 = CLOSED_SHELL ( 'NONE', ( #195, #108, #92, #180, #45, #182 ) ) ;
#124 = CARTESIAN_POINT ( 'NONE',  ( 0.1086056959403334800, 20.00000000000000000, 5.000000000000000000 ) ) ;
#125 = EDGE_LOOP ( 'NONE', ( #10, #179, #158, #84 ) ) ;
#126 = APPLICATION_CONTEXT ( 'automotive_design' ) ;
#127 = AXIS2_PLACEMENT_3D ( 'NONE', #7, #97, #46 ) ;
#128 = EDGE_LOOP ( 'NONE', ( #59, #150, #174, #49 ) ) ;
#129 = AXIS2_PLACEMENT_3D ( 'NONE', #168, #50, #82 ) ;
#130 = LINE ( 'NONE', #148, #110 ) ;
#131 = EDGE_CURVE ( 'NONE', #91, #133, #51, .T. ) ;
#132 = FILL_AREA_STYLE_COLOUR ( '', #107 ) ;
#133 = VERTEX_POINT ( 'NONE', #157 ) ;
#134 = CARTESIAN_POINT ( 'NONE',  ( 2.105204334851263200, 20.00000000000000000, -5.000000000000000000 ) ) ;
#135 = PRESENTATION_STYLE_ASSIGNMENT (( #21 ) ) ;
#136 = EDGE_LOOP ( 'NONE', ( #142, #16, #75, #53 ) ) ;
#137 = LINE ( 'NONE', #68, #141 ) ;
#138 = CARTESIAN_POINT ( 'NONE',  ( 0.1086056959403334800, 0.0000000000000000000, 5.000000000000000000 ) ) ;
#139 = DIRECTION ( 'NONE',  ( -0.0000000000000000000, -1.000000000000000000, -0.0000000000000000000 ) ) ;
#140 = PRESENTATION_STYLE_ASSIGNMENT (( #79 ) ) ;
#141 = VECTOR ( 'NONE', #114, 1000.000000000000000 ) ;
#142 = ORIENTED_EDGE ( 'NONE', *, *, #131, .T. ) ;
#143 = CYLINDRICAL_SURFACE ( 'NONE', #111, 6.560000000000013800 ) ;
#144 = VERTEX_POINT ( 'NONE', #204 ) ;
#145 = PRESENTATION_LAYER_ASSIGNMENT (  '', '', ( #106 ) ) ;
#146 = UNCERTAINTY_MEASURE_WITH_UNIT (LENGTH_MEASURE( 1.000000000000000100E-005 ), #30, 'distance_accuracy_value', 'NONE');
#147 = DIRECTION ( 'NONE',  ( 0.0000000000000000000, 0.0000000000000000000, -1.000000000000000000 ) ) ;
#148 = CARTESIAN_POINT ( 'NONE',  ( 2.105204334851263200, 0.0000000000000000000, -5.000000000000000000 ) ) ;
#149 = CIRCLE ( 'NONE', #81, 6.560000000000013800 ) ;
#150 = ORIENTED_EDGE ( 'NONE', *, *, #154, .F. ) ;
#151 = LINE ( 'NONE', #65, #121 ) ;
#152 = CIRCLE ( 'NONE', #129, 6.560000000000013800 ) ;
#153 =( LENGTH_UNIT ( ) NAMED_UNIT ( * ) SI_UNIT ( .MILLI., .METRE. ) );
#154 = EDGE_CURVE ( 'NONE', #181, #13, #19, .T. ) ;
#155 = DIRECTION ( 'NONE',  ( -0.0000000000000000000, -1.000000000000000000, -0.0000000000000000000 ) ) ;
#156 = APPLICATION_PROTOCOL_DEFINITION ( 'draft international standard', 'automotive_design', 1998, #126 ) ;
#157 = CARTESIAN_POINT ( 'NONE',  ( 2.105204334851266300, 0.0000000000000000000, 5.000000000000000000 ) ) ;
#158 = ORIENTED_EDGE ( 'NONE', *, *, #27, .F. ) ;
#159 = EDGE_LOOP ( 'NONE', ( #164, #88, #77, #167 ) ) ;
#160 =( GEOMETRIC_REPRESENTATION_CONTEXT ( 3 ) GLOBAL_UNCERTAINTY_ASSIGNED_CONTEXT ( ( #172 ) ) GLOBAL_UNIT_ASSIGNED_CONTEXT ( ( #116, #20, #33 ) ) REPRESENTATION_CONTEXT ( 'NONE', 'WORKASPACE' ) );
#161 = EDGE_CURVE ( 'NONE', #144, #9, #28, .T. ) ;
#162 = EDGE_LOOP ( 'NONE', ( #86, #41, #26, #39 ) ) ;
#163 =( NAMED_UNIT ( * ) SI_UNIT ( $, .STERADIAN. ) SOLID_ANGLE_UNIT ( ) );
#164 = ORIENTED_EDGE ( 'NONE', *, *, #154, .T. ) ;
#165 = ORIENTED_EDGE ( 'NONE', *, *, #80, .T. ) ;
#166 = SURFACE_SIDE_STYLE ('',( #191 ) ) ;
#167 = ORIENTED_EDGE ( 'NONE', *, *, #11, .T. ) ;
#168 = CARTESIAN_POINT ( 'NONE',  ( 4.355204334851265500, 20.00000000000000000, 4.286263797015675000E-017 ) ) ;
#169 = PRODUCT_DEFINITION_CONTEXT ( 'detailed design', #201, 'design' ) ;
#170 = CARTESIAN_POINT ( 'NONE',  ( 0.1086056959403334800, 20.00000000000000000, -5.000000000000000000 ) ) ;
#171 = CARTESIAN_POINT ( 'NONE',  ( 0.1086056959403334800, 20.00000000000000000, -5.000000000000000000 ) ) ;
#172 = UNCERTAINTY_MEASURE_WITH_UNIT (LENGTH_MEASURE( 1.000000000000000100E-005 ), #116, 'distance_accuracy_value', 'NONE');
#173 = CARTESIAN_POINT ( 'NONE',  ( 4.355204334851265500, 0.0000000000000000000, 4.286263797015675000E-017 ) ) ;
#174 = ORIENTED_EDGE ( 'NONE', *, *, #29, .F. ) ;
#175 = PLANE ( 'NONE',  #189 ) ;
#176 = CARTESIAN_POINT ( 'NONE',  ( 0.1086056959403334800, 20.00000000000000000, 5.000000000000000000 ) ) ;
#177 = DIRECTION ( 'NONE',  ( -0.0000000000000000000, -1.000000000000000000, -0.0000000000000000000 ) ) ;
#178 = VERTEX_POINT ( 'NONE', #124 ) ;
#179 = ORIENTED_EDGE ( 'NONE', *, *, #83, .F. ) ;
#180 = ADVANCED_FACE ( 'NONE', ( #44 ), #98, .F. ) ;
#181 = VERTEX_POINT ( 'NONE', #69 ) ;
#182 = ADVANCED_FACE ( 'NONE', ( #8 ), #187, .F. ) ;
#183 = AXIS2_PLACEMENT_3D ( 'NONE', #134, #32, #52 ) ;
#184 = CARTESIAN_POINT ( 'NONE',  ( 4.355204334851265500, 0.0000000000000000000, 4.286263797015675000E-017 ) ) ;
#185 = DIRECTION ( 'NONE',  ( 1.000000000000000000, 0.0000000000000000000, 0.0000000000000000000 ) ) ;
#186 = DIRECTION ( 'NONE',  ( -3.035766082959412400E-016, -0.0000000000000000000, -1.000000000000000000 ) ) ;
#187 = PLANE ( 'NONE',  #202 ) ;
#188 = FILL_AREA_STYLE_COLOUR ( '', #31 ) ;
#189 = AXIS2_PLACEMENT_3D ( 'NONE', #176, #147, #60 ) ;
#190 = ORIENTED_EDGE ( 'NONE', *, *, #161, .T. ) ;
#191 = SURFACE_STYLE_FILL_AREA ( #47 ) ;
#192 = AXIS2_PLACEMENT_3D ( 'NONE', #170, #55, #100 ) ;
#193 = PRODUCT ( '155024', '155024', '', ( #118 ) ) ;
#194 =( GEOMETRIC_REPRESENTATION_CONTEXT ( 3 ) GLOBAL_UNCERTAINTY_ASSIGNED_CONTEXT ( ( #146 ) ) GLOBAL_UNIT_ASSIGNED_CONTEXT ( ( #30, #95, #2 ) ) REPRESENTATION_CONTEXT ( 'NONE', 'WORKASPACE' ) );
#195 = ADVANCED_FACE ( 'NONE', ( #24 ), #143, .T. ) ;
#196 = DIRECTION ( 'NONE',  ( -0.0000000000000000000, -1.000000000000000000, -0.0000000000000000000 ) ) ;
#197 =( NAMED_UNIT ( * ) PLANE_ANGLE_UNIT ( ) SI_UNIT ( $, .RADIAN. ) );
#198 = DIRECTION ( 'NONE',  ( -1.000000000000000000, -0.0000000000000000000, -0.0000000000000000000 ) ) ;
#199 = MECHANICAL_DESIGN_GEOMETRIC_PRESENTATION_REPRESENTATION (  '', ( #89 ), #1 ) ;
#200 = FILL_AREA_STYLE ('',( #132 ) ) ;
#201 = APPLICATION_CONTEXT ( 'automotive_design' ) ;
#202 = AXIS2_PLACEMENT_3D ( 'NONE', #173, #203, #38 ) ;
#203 = DIRECTION ( 'NONE',  ( 0.0000000000000000000, 1.000000000000000000, 0.0000000000000000000 ) ) ;
#204 = CARTESIAN_POINT ( 'NONE',  ( 2.105204334851266300, 20.00000000000000000, 5.000000000000000000 ) ) ;
ENDSEC;
END-ISO-10303-21;
