ISO-10303-21;
HEADER;
FILE_DESCRIPTION (( 'STEP AP214' ),
    '1' );
FILE_NAME ('155062.STEP',
    '2019-06-18T08:19:36',
    ( 'user' ),
    ( 'Î¢ÈíÖÐ¹ú' ),
    'SwSTEP 2.0',
    'SolidWorks 2016',
    '' );
FILE_SCHEMA (( 'AUTOMOTIVE_DESIGN' ));
ENDSEC;

DATA;
#1 = DIRECTION ( 'NONE',  ( 1.000000000000000000, 0.0000000000000000000, 0.0000000000000000000 ) ) ;
#2 = VECTOR ( 'NONE', #140, 1000.000000000000000 ) ;
#3 = PRODUCT ( '155062', '155062', '', ( #36 ) ) ;
#4 = VECTOR ( 'NONE', #89, 1000.000000000000000 ) ;
#5 = APPLICATION_PROTOCOL_DEFINITION ( 'draft international standard', 'automotive_design', 1998, #183 ) ;
#6 = CARTESIAN_POINT ( 'NONE',  ( -147.0447956651487100, 0.0000000000000000000, -14.99999999999996800 ) ) ;
#7 = LINE ( 'NONE', #70, #188 ) ;
#8 = DIRECTION ( 'NONE',  ( 0.0000000000000000000, 1.000000000000000000, 0.0000000000000000000 ) ) ;
#9 = FACE_OUTER_BOUND ( 'NONE', #132, .T. ) ;
#10 = DIRECTION ( 'NONE',  ( -0.0000000000000000000, -1.000000000000000000, -0.0000000000000000000 ) ) ;
#11 = CARTESIAN_POINT ( 'NONE',  ( -150.0177531415150400, 60.00000000000000000, -15.00000000000000000 ) ) ;
#12 = DIRECTION ( 'NONE',  ( -0.0000000000000000000, -1.000000000000000000, -0.0000000000000000000 ) ) ;
#13 = CARTESIAN_POINT ( 'NONE',  ( 4.355204334851265500, 0.0000000000000000000, 4.286263797015675000E-017 ) ) ;
#14 = CARTESIAN_POINT ( 'NONE',  ( -147.0447956651487100, 60.00000000000000000, 15.00000000000000000 ) ) ;
#15 = EDGE_LOOP ( 'NONE', ( #18, #128, #78, #184 ) ) ;
#16 = UNCERTAINTY_MEASURE_WITH_UNIT (LENGTH_MEASURE( 1.000000000000000100E-005 ), #107, 'distance_accuracy_value', 'NONE');
#17 = CARTESIAN_POINT ( 'NONE',  ( -150.0177531415150400, 60.00000000000000000, 15.00000000000000000 ) ) ;
#18 = ORIENTED_EDGE ( 'NONE', *, *, #143, .T. ) ;
#19 = AXIS2_PLACEMENT_3D ( 'NONE', #13, #120, #40 ) ;
#20 =( GEOMETRIC_REPRESENTATION_CONTEXT ( 3 ) GLOBAL_UNCERTAINTY_ASSIGNED_CONTEXT ( ( #174 ) ) GLOBAL_UNIT_ASSIGNED_CONTEXT ( ( #167, #66, #172 ) ) REPRESENTATION_CONTEXT ( 'NONE', 'WORKASPACE' ) );
#21 = ORIENTED_EDGE ( 'NONE', *, *, #143, .F. ) ;
#22 = CARTESIAN_POINT ( 'NONE',  ( -147.0447956651487100, 60.00000000000000000, -14.99999999999996800 ) ) ;
#23 = SURFACE_STYLE_FILL_AREA ( #138 ) ;
#24 = CARTESIAN_POINT ( 'NONE',  ( -150.0177531415150400, 0.0000000000000000000, -15.00000000000000000 ) ) ;
#25 = ORIENTED_EDGE ( 'NONE', *, *, #137, .F. ) ;
#26 = VECTOR ( 'NONE', #146, 1000.000000000000000 ) ;
#27 = PRESENTATION_STYLE_ASSIGNMENT (( #94 ) ) ;
#28 = PLANE ( 'NONE',  #160 ) ;
#29 = PLANE ( 'NONE',  #80 ) ;
#30 = VERTEX_POINT ( 'NONE', #133 ) ;
#31 = DIRECTION ( 'NONE',  ( 1.000000000000000000, 0.0000000000000000000, 1.050301688329124300E-014 ) ) ;
#32 = ORIENTED_EDGE ( 'NONE', *, *, #171, .T. ) ;
#33 = FACE_OUTER_BOUND ( 'NONE', #105, .T. ) ;
#34 = FACE_OUTER_BOUND ( 'NONE', #58, .T. ) ;
#35 = PLANE ( 'NONE',  #69 ) ;
#36 = PRODUCT_CONTEXT ( 'NONE', #183, 'mechanical' ) ;
#37 = EDGE_CURVE ( 'NONE', #87, #30, #118, .T. ) ;
#38 = ADVANCED_FACE ( 'NONE', ( #83 ), #116, .F. ) ;
#39 = ORIENTED_EDGE ( 'NONE', *, *, #54, .F. ) ;
#40 = DIRECTION ( 'NONE',  ( 0.0000000000000000000, -0.0000000000000000000, 1.000000000000000000 ) ) ;
#41 = APPLICATION_CONTEXT ( 'automotive_design' ) ;
#42 = SHAPE_DEFINITION_REPRESENTATION ( #61, #113 ) ;
#43 = ORIENTED_EDGE ( 'NONE', *, *, #68, .F. ) ;
#44 = ADVANCED_FACE ( 'NONE', ( #9 ), #157, .F. ) ;
#45 = DIRECTION ( 'NONE',  ( 0.0000000000000000000, 0.0000000000000000000, -1.000000000000000000 ) ) ;
#46 = CYLINDRICAL_SURFACE ( 'NONE', #192, 155.1000000000000200 ) ;
#47 = LINE ( 'NONE', #173, #111 ) ;
#48 = CARTESIAN_POINT ( 'NONE',  ( -150.0177531415150400, 60.00000000000000000, -15.00000000000000000 ) ) ;
#49 = DIRECTION ( 'NONE',  ( 0.0000000000000000000, 0.0000000000000000000, -1.000000000000000000 ) ) ;
#50 = ORIENTED_EDGE ( 'NONE', *, *, #54, .T. ) ;
#51 = VECTOR ( 'NONE', #123, 1000.000000000000000 ) ;
#52 = LINE ( 'NONE', #142, #100 ) ;
#53 = DIRECTION ( 'NONE',  ( -1.000000000000000000, -0.0000000000000000000, -1.050301688329124300E-014 ) ) ;
#54 = EDGE_CURVE ( 'NONE', #67, #87, #59, .T. ) ;
#55 = ORIENTED_EDGE ( 'NONE', *, *, #181, .T. ) ;
#56 = ORIENTED_EDGE ( 'NONE', *, *, #175, .T. ) ;
#57 = EDGE_CURVE ( 'NONE', #64, #154, #7, .T. ) ;
#58 = EDGE_LOOP ( 'NONE', ( #95, #201, #32, #180 ) ) ;
#59 = CIRCLE ( 'NONE', #204, 155.1000000000000200 ) ;
#60 = PRODUCT_RELATED_PRODUCT_CATEGORY ( 'part', '', ( #3 ) ) ;
#61 = PRODUCT_DEFINITION_SHAPE ( 'NONE', 'NONE',  #63 ) ;
#62 = EDGE_CURVE ( 'NONE', #108, #30, #141, .T. ) ;
#63 = PRODUCT_DEFINITION ( 'Î´Öª', '', #73, #126 ) ;
#64 = VERTEX_POINT ( 'NONE', #22 ) ;
#65 = VECTOR ( 'NONE', #12, 1000.000000000000000 ) ;
#66 =( NAMED_UNIT ( * ) PLANE_ANGLE_UNIT ( ) SI_UNIT ( $, .RADIAN. ) );
#67 = VERTEX_POINT ( 'NONE', #24 ) ;
#68 = EDGE_CURVE ( 'NONE', #169, #67, #47, .T. ) ;
#69 = AXIS2_PLACEMENT_3D ( 'NONE', #185, #49, #165 ) ;
#70 = CARTESIAN_POINT ( 'NONE',  ( -147.0447956651487100, 60.00000000000000000, -14.99999999999996800 ) ) ;
#71 = ADVANCED_FACE ( 'NONE', ( #156 ), #28, .F. ) ;
#72 = DIRECTION ( 'NONE',  ( 0.0000000000000000000, 1.000000000000000000, 0.0000000000000000000 ) ) ;
#73 = PRODUCT_DEFINITION_FORMATION_WITH_SPECIFIED_SOURCE ( 'ÈÎºÎ', '', #3, .NOT_KNOWN. ) ;
#74 = FACE_OUTER_BOUND ( 'NONE', #200, .T. ) ;
#75 = LINE ( 'NONE', #17, #4 ) ;
#76 = DIRECTION ( 'NONE',  ( 0.0000000000000000000, 0.0000000000000000000, 1.000000000000000000 ) ) ;
#77 = CARTESIAN_POINT ( 'NONE',  ( 4.355204334851265500, 60.00000000000000000, 4.286263797015675000E-017 ) ) ;
#78 = ORIENTED_EDGE ( 'NONE', *, *, #171, .F. ) ;
#79 = CARTESIAN_POINT ( 'NONE',  ( 4.355204334851265500, 60.00000000000000000, 4.286263797015675000E-017 ) ) ;
#80 = AXIS2_PLACEMENT_3D ( 'NONE', #187, #202, #91 ) ;
#81 =( NAMED_UNIT ( * ) PLANE_ANGLE_UNIT ( ) SI_UNIT ( $, .RADIAN. ) );
#82 = MECHANICAL_DESIGN_GEOMETRIC_PRESENTATION_REPRESENTATION (  '', ( #163 ), #86 ) ;
#83 = FACE_OUTER_BOUND ( 'NONE', #134, .T. ) ;
#84 = UNCERTAINTY_MEASURE_WITH_UNIT (LENGTH_MEASURE( 1.000000000000000100E-005 ), #96, 'distance_accuracy_value', 'NONE');
#85 =( NAMED_UNIT ( * ) PLANE_ANGLE_UNIT ( ) SI_UNIT ( $, .RADIAN. ) );
#86 =( GEOMETRIC_REPRESENTATION_CONTEXT ( 3 ) GLOBAL_UNCERTAINTY_ASSIGNED_CONTEXT ( ( #84 ) ) GLOBAL_UNIT_ASSIGNED_CONTEXT ( ( #96, #81, #90 ) ) REPRESENTATION_CONTEXT ( 'NONE', 'WORKASPACE' ) );
#87 = VERTEX_POINT ( 'NONE', #124 ) ;
#88 = LINE ( 'NONE', #136, #2 ) ;
#89 = DIRECTION ( 'NONE',  ( 1.000000000000000000, 0.0000000000000000000, 0.0000000000000000000 ) ) ;
#90 =( NAMED_UNIT ( * ) SI_UNIT ( $, .STERADIAN. ) SOLID_ANGLE_UNIT ( ) );
#91 = DIRECTION ( 'NONE',  ( 0.0000000000000000000, -0.0000000000000000000, 1.000000000000000000 ) ) ;
#92 = DIRECTION ( 'NONE',  ( -0.0000000000000000000, -0.0000000000000000000, -1.000000000000000000 ) ) ;
#93 = PRESENTATION_LAYER_ASSIGNMENT (  '', '', ( #163 ) ) ;
#94 = SURFACE_STYLE_USAGE ( .BOTH. , #99 ) ;
#95 = ORIENTED_EDGE ( 'NONE', *, *, #162, .T. ) ;
#96 =( LENGTH_UNIT ( ) NAMED_UNIT ( * ) SI_UNIT ( .MILLI., .METRE. ) );
#97 = ORIENTED_EDGE ( 'NONE', *, *, #57, .T. ) ;
#98 = SURFACE_STYLE_USAGE ( .BOTH. , #196 ) ;
#99 = SURFACE_SIDE_STYLE ('',( #158 ) ) ;
#100 = VECTOR ( 'NONE', #194, 1000.000000000000000 ) ;
#101 = CARTESIAN_POINT ( 'NONE',  ( -147.0447956651487100, 0.0000000000000000000, -14.99999999999996800 ) ) ;
#102 = CARTESIAN_POINT ( 'NONE',  ( -147.0447956651487100, 60.00000000000000000, -14.99999999999996800 ) ) ;
#103 = ADVANCED_FACE ( 'NONE', ( #34 ), #29, .T. ) ;
#104 = ORIENTED_EDGE ( 'NONE', *, *, #149, .F. ) ;
#105 = EDGE_LOOP ( 'NONE', ( #203, #109, #25, #56 ) ) ;
#106 = FILL_AREA_STYLE_COLOUR ( '', #139 ) ;
#107 =( LENGTH_UNIT ( ) NAMED_UNIT ( * ) SI_UNIT ( .MILLI., .METRE. ) );
#108 = VERTEX_POINT ( 'NONE', #14 ) ;
#109 = ORIENTED_EDGE ( 'NONE', *, *, #62, .F. ) ;
#110 = CARTESIAN_POINT ( 'NONE',  ( 4.355204334851265500, 0.0000000000000000000, 4.286263797015675000E-017 ) ) ;
#111 = VECTOR ( 'NONE', #190, 1000.000000000000000 ) ;
#112 = LINE ( 'NONE', #177, #65 ) ;
#113 = ADVANCED_BREP_SHAPE_REPRESENTATION ( '155062', ( #176, #117 ), #20 ) ;
#114 = ORIENTED_EDGE ( 'NONE', *, *, #68, .T. ) ;
#115 = COLOUR_RGB ( '',1.000000000000000000, 1.000000000000000000, 1.000000000000000000 ) ;
#116 = PLANE ( 'NONE',  #119 ) ;
#117 = AXIS2_PLACEMENT_3D ( 'NONE', #135, #76, #1 ) ;
#118 = LINE ( 'NONE', #193, #26 ) ;
#119 = AXIS2_PLACEMENT_3D ( 'NONE', #48, #168, #31 ) ;
#120 = DIRECTION ( 'NONE',  ( 0.0000000000000000000, 1.000000000000000000, 0.0000000000000000000 ) ) ;
#121 = CLOSED_SHELL ( 'NONE', ( #131, #161, #71, #38, #103, #44 ) ) ;
#122 = CARTESIAN_POINT ( 'NONE',  ( -150.0177531415150400, 60.00000000000000000, -15.00000000000000000 ) ) ;
#123 = DIRECTION ( 'NONE',  ( -0.0000000000000000000, -1.000000000000000000, -0.0000000000000000000 ) ) ;
#124 = CARTESIAN_POINT ( 'NONE',  ( -150.0177531415150400, 0.0000000000000000000, 15.00000000000000000 ) ) ;
#125 = VERTEX_POINT ( 'NONE', #150 ) ;
#126 = PRODUCT_DEFINITION_CONTEXT ( 'detailed design', #41, 'design' ) ;
#127 = CARTESIAN_POINT ( 'NONE',  ( -147.0447956651487100, 60.00000000000000000, 15.00000000000000000 ) ) ;
#128 = ORIENTED_EDGE ( 'NONE', *, *, #57, .F. ) ;
#129 = PRESENTATION_LAYER_ASSIGNMENT (  '', '', ( #151 ) ) ;
#130 = DIRECTION ( 'NONE',  ( 0.0000000000000000000, 0.0000000000000000000, 1.000000000000000000 ) ) ;
#131 = ADVANCED_FACE ( 'NONE', ( #74 ), #46, .T. ) ;
#132 = EDGE_LOOP ( 'NONE', ( #39, #199, #21, #179 ) ) ;
#133 = CARTESIAN_POINT ( 'NONE',  ( -147.0447956651487100, 0.0000000000000000000, 15.00000000000000000 ) ) ;
#134 = EDGE_LOOP ( 'NONE', ( #55, #43, #104, #97 ) ) ;
#135 = CARTESIAN_POINT ( 'NONE',  ( 0.0000000000000000000, 0.0000000000000000000, 0.0000000000000000000 ) ) ;
#136 = CARTESIAN_POINT ( 'NONE',  ( -150.0177531415150400, 0.0000000000000000000, -15.00000000000000000 ) ) ;
#137 = EDGE_CURVE ( 'NONE', #125, #108, #75, .T. ) ;
#138 = FILL_AREA_STYLE ('',( #106 ) ) ;
#139 = COLOUR_RGB ( '',1.000000000000000000, 1.000000000000000000, 1.000000000000000000 ) ;
#140 = DIRECTION ( 'NONE',  ( -1.000000000000000000, -0.0000000000000000000, -1.050301688329124300E-014 ) ) ;
#141 = LINE ( 'NONE', #127, #51 ) ;
#142 = CARTESIAN_POINT ( 'NONE',  ( -147.0447956651487100, 60.00000000000000000, -14.99999999999996800 ) ) ;
#143 = EDGE_CURVE ( 'NONE', #30, #154, #186, .T. ) ;
#144 = DIRECTION ( 'NONE',  ( -0.0000000000000000000, -1.000000000000000000, -0.0000000000000000000 ) ) ;
#145 = VECTOR ( 'NONE', #92, 1000.000000000000000 ) ;
#146 = DIRECTION ( 'NONE',  ( 1.000000000000000000, 0.0000000000000000000, 0.0000000000000000000 ) ) ;
#147 = VECTOR ( 'NONE', #53, 1000.000000000000000 ) ;
#148 = APPLICATION_PROTOCOL_DEFINITION ( 'draft international standard', 'automotive_design', 1998, #41 ) ;
#149 = EDGE_CURVE ( 'NONE', #64, #169, #189, .T. ) ;
#150 = CARTESIAN_POINT ( 'NONE',  ( -150.0177531415150400, 60.00000000000000000, 15.00000000000000000 ) ) ;
#151 = STYLED_ITEM ( 'NONE', ( #178 ), #176 ) ;
#152 =( NAMED_UNIT ( * ) SI_UNIT ( $, .STERADIAN. ) SOLID_ANGLE_UNIT ( ) );
#153 = DIRECTION ( 'NONE',  ( 0.0000000000000000000, 0.0000000000000000000, 1.000000000000000000 ) ) ;
#154 = VERTEX_POINT ( 'NONE', #101 ) ;
#155 = DIRECTION ( 'NONE',  ( 0.0000000000000000000, 0.0000000000000000000, 1.000000000000000000 ) ) ;
#156 = FACE_OUTER_BOUND ( 'NONE', #15, .T. ) ;
#157 = PLANE ( 'NONE',  #19 ) ;
#158 = SURFACE_STYLE_FILL_AREA ( #170 ) ;
#159 = AXIS2_PLACEMENT_3D ( 'NONE', #79, #72, #153 ) ;
#160 = AXIS2_PLACEMENT_3D ( 'NONE', #102, #195, #155 ) ;
#161 = ADVANCED_FACE ( 'NONE', ( #33 ), #35, .F. ) ;
#162 = EDGE_CURVE ( 'NONE', #169, #125, #191, .T. ) ;
#163 = STYLED_ITEM ( 'NONE', ( #27 ), #113 ) ;
#164 = ORIENTED_EDGE ( 'NONE', *, *, #162, .F. ) ;
#165 = DIRECTION ( 'NONE',  ( -1.000000000000000000, 0.0000000000000000000, -0.0000000000000000000 ) ) ;
#166 = FILL_AREA_STYLE_COLOUR ( '', #115 ) ;
#167 =( LENGTH_UNIT ( ) NAMED_UNIT ( * ) SI_UNIT ( .MILLI., .METRE. ) );
#168 = DIRECTION ( 'NONE',  ( -1.050301688329124300E-014, 0.0000000000000000000, 1.000000000000000000 ) ) ;
#169 = VERTEX_POINT ( 'NONE', #11 ) ;
#170 = FILL_AREA_STYLE ('',( #166 ) ) ;
#171 = EDGE_CURVE ( 'NONE', #108, #64, #52, .T. ) ;
#172 =( NAMED_UNIT ( * ) SI_UNIT ( $, .STERADIAN. ) SOLID_ANGLE_UNIT ( ) );
#173 = CARTESIAN_POINT ( 'NONE',  ( -150.0177531415150400, 60.00000000000000000, -15.00000000000000000 ) ) ;
#174 = UNCERTAINTY_MEASURE_WITH_UNIT (LENGTH_MEASURE( 1.000000000000000100E-005 ), #167, 'distance_accuracy_value', 'NONE');
#175 = EDGE_CURVE ( 'NONE', #125, #87, #112, .T. ) ;
#176 = MANIFOLD_SOLID_BREP ( 'Í¹Ì¨-À­Éì1', #121 ) ;
#177 = CARTESIAN_POINT ( 'NONE',  ( -150.0177531415150400, 60.00000000000000000, 15.00000000000000000 ) ) ;
#178 = PRESENTATION_STYLE_ASSIGNMENT (( #98 ) ) ;
#179 = ORIENTED_EDGE ( 'NONE', *, *, #37, .F. ) ;
#180 = ORIENTED_EDGE ( 'NONE', *, *, #149, .T. ) ;
#181 = EDGE_CURVE ( 'NONE', #154, #67, #88, .T. ) ;
#182 =( GEOMETRIC_REPRESENTATION_CONTEXT ( 3 ) GLOBAL_UNCERTAINTY_ASSIGNED_CONTEXT ( ( #16 ) ) GLOBAL_UNIT_ASSIGNED_CONTEXT ( ( #107, #85, #152 ) ) REPRESENTATION_CONTEXT ( 'NONE', 'WORKASPACE' ) );
#183 = APPLICATION_CONTEXT ( 'automotive_design' ) ;
#184 = ORIENTED_EDGE ( 'NONE', *, *, #62, .T. ) ;
#185 = CARTESIAN_POINT ( 'NONE',  ( -150.0177531415150400, 60.00000000000000000, 15.00000000000000000 ) ) ;
#186 = LINE ( 'NONE', #6, #145 ) ;
#187 = CARTESIAN_POINT ( 'NONE',  ( 4.355204334851265500, 60.00000000000000000, 4.286263797015675000E-017 ) ) ;
#188 = VECTOR ( 'NONE', #144, 1000.000000000000000 ) ;
#189 = LINE ( 'NONE', #122, #147 ) ;
#190 = DIRECTION ( 'NONE',  ( -0.0000000000000000000, -1.000000000000000000, -0.0000000000000000000 ) ) ;
#191 = CIRCLE ( 'NONE', #159, 155.1000000000000200 ) ;
#192 = AXIS2_PLACEMENT_3D ( 'NONE', #77, #10, #45 ) ;
#193 = CARTESIAN_POINT ( 'NONE',  ( -150.0177531415150400, 0.0000000000000000000, 15.00000000000000000 ) ) ;
#194 = DIRECTION ( 'NONE',  ( -0.0000000000000000000, -0.0000000000000000000, -1.000000000000000000 ) ) ;
#195 = DIRECTION ( 'NONE',  ( -1.000000000000000000, 0.0000000000000000000, 0.0000000000000000000 ) ) ;
#196 = SURFACE_SIDE_STYLE ('',( #23 ) ) ;
#197 = ORIENTED_EDGE ( 'NONE', *, *, #175, .F. ) ;
#198 = MECHANICAL_DESIGN_GEOMETRIC_PRESENTATION_REPRESENTATION (  '', ( #151 ), #182 ) ;
#199 = ORIENTED_EDGE ( 'NONE', *, *, #181, .F. ) ;
#200 = EDGE_LOOP ( 'NONE', ( #50, #197, #164, #114 ) ) ;
#201 = ORIENTED_EDGE ( 'NONE', *, *, #137, .T. ) ;
#202 = DIRECTION ( 'NONE',  ( 0.0000000000000000000, 1.000000000000000000, 0.0000000000000000000 ) ) ;
#203 = ORIENTED_EDGE ( 'NONE', *, *, #37, .T. ) ;
#204 = AXIS2_PLACEMENT_3D ( 'NONE', #110, #8, #130 ) ;
ENDSEC;
END-ISO-10303-21;
