ISO-10303-21;
HEADER;
FILE_DESCRIPTION (( 'STEP AP214' ),
    '1' );
FILE_NAME ('155264.STEP',
    '2019-06-25T01:43:37',
    ( 'user' ),
    ( 'Î¢ÈíÖÐ¹ú' ),
    'SwSTEP 2.0',
    'SolidWorks 2016',
    '' );
FILE_SCHEMA (( 'AUTOMOTIVE_DESIGN' ));
ENDSEC;

DATA;
#1 = AXIS2_PLACEMENT_3D ( 'NONE', #39, #10, #90 ) ;
#2 = EDGE_LOOP ( 'NONE', ( #73, #155, #117, #149 ) ) ;
#3 = UNCERTAINTY_MEASURE_WITH_UNIT (LENGTH_MEASURE( 1.000000000000000100E-005 ), #60, 'distance_accuracy_value', 'NONE');
#4 = CARTESIAN_POINT ( 'NONE',  ( 3.375204334851262400, 0.0000000000000000000, -5.000000000000001800 ) ) ;
#5 = CARTESIAN_POINT ( 'NONE',  ( 3.375204334851265500, 10.00000000000000000, 5.000000000000000000 ) ) ;
#6 = PRODUCT_RELATED_PRODUCT_CATEGORY ( 'part', '', ( #35 ) ) ;
#7 = EDGE_LOOP ( 'NONE', ( #132, #178, #192, #36 ) ) ;
#8 = CARTESIAN_POINT ( 'NONE',  ( 4.355204334851265500, 10.00000000000000000, 4.286263797015675000E-017 ) ) ;
#9 = CARTESIAN_POINT ( 'NONE',  ( 3.375204334851262400, 10.00000000000000000, -5.000000000000001800 ) ) ;
#10 = DIRECTION ( 'NONE',  ( -1.000000000000000000, 0.0000000000000000000, 3.035766082959411900E-016 ) ) ;
#11 = FILL_AREA_STYLE_COLOUR ( '', #166 ) ;
#12 = ADVANCED_FACE ( 'NONE', ( #78 ), #119, .F. ) ;
#13 = APPLICATION_CONTEXT ( 'automotive_design' ) ;
#14 = EDGE_CURVE ( 'NONE', #124, #49, #111, .T. ) ;
#15 =( GEOMETRIC_REPRESENTATION_CONTEXT ( 3 ) GLOBAL_UNCERTAINTY_ASSIGNED_CONTEXT ( ( #3 ) ) GLOBAL_UNIT_ASSIGNED_CONTEXT ( ( #60, #43, #191 ) ) REPRESENTATION_CONTEXT ( 'NONE', 'WORKASPACE' ) );
#16 = FACE_OUTER_BOUND ( 'NONE', #25, .T. ) ;
#17 = AXIS2_PLACEMENT_3D ( 'NONE', #8, #88, #55 ) ;
#18 = CARTESIAN_POINT ( 'NONE',  ( 3.375204334851265500, 10.00000000000000000, 5.000000000000000000 ) ) ;
#19 = LINE ( 'NONE', #202, #145 ) ;
#20 = MECHANICAL_DESIGN_GEOMETRIC_PRESENTATION_REPRESENTATION (  '', ( #53 ), #15 ) ;
#21 = ORIENTED_EDGE ( 'NONE', *, *, #79, .F. ) ;
#22 = CARTESIAN_POINT ( 'NONE',  ( 1.376546919168801600, 10.00000000000000000, -5.000000000000000000 ) ) ;
#23 = DIRECTION ( 'NONE',  ( -1.000000000000000000, 0.0000000000000000000, -0.0000000000000000000 ) ) ;
#24 = ADVANCED_FACE ( 'NONE', ( #154 ), #72, .F. ) ;
#25 = EDGE_LOOP ( 'NONE', ( #163, #98, #48, #71 ) ) ;
#26 = LINE ( 'NONE', #169, #116 ) ;
#27 = ORIENTED_EDGE ( 'NONE', *, *, #57, .F. ) ;
#28 = EDGE_LOOP ( 'NONE', ( #112, #82, #131, #21 ) ) ;
#29 = VECTOR ( 'NONE', #99, 1000.000000000000000 ) ;
#30 = PRESENTATION_LAYER_ASSIGNMENT (  '', '', ( #53 ) ) ;
#31 = PRODUCT_DEFINITION_SHAPE ( 'NONE', 'NONE',  #106 ) ;
#32 = CARTESIAN_POINT ( 'NONE',  ( 1.376546919168801300, 0.0000000000000000000, 5.000000000000000000 ) ) ;
#33 = EDGE_CURVE ( 'NONE', #130, #124, #26, .T. ) ;
#34 = VECTOR ( 'NONE', #183, 1000.000000000000000 ) ;
#35 = PRODUCT ( '155264', '155264', '', ( #138 ) ) ;
#36 = ORIENTED_EDGE ( 'NONE', *, *, #57, .T. ) ;
#37 = CARTESIAN_POINT ( 'NONE',  ( 1.376546919168801300, 10.00000000000000000, 5.000000000000000000 ) ) ;
#38 = DIRECTION ( 'NONE',  ( 0.0000000000000000000, 0.0000000000000000000, 1.000000000000000000 ) ) ;
#39 = CARTESIAN_POINT ( 'NONE',  ( 3.375204334851262400, 10.00000000000000000, -5.000000000000001800 ) ) ;
#40 = CARTESIAN_POINT ( 'NONE',  ( 3.375204334851265500, 0.0000000000000000000, 5.000000000000000000 ) ) ;
#41 = PRESENTATION_STYLE_ASSIGNMENT (( #122 ) ) ;
#42 = CARTESIAN_POINT ( 'NONE',  ( 0.0000000000000000000, 0.0000000000000000000, 0.0000000000000000000 ) ) ;
#43 =( NAMED_UNIT ( * ) PLANE_ANGLE_UNIT ( ) SI_UNIT ( $, .RADIAN. ) );
#44 = MECHANICAL_DESIGN_GEOMETRIC_PRESENTATION_REPRESENTATION (  '', ( #176 ), #115 ) ;
#45 = ORIENTED_EDGE ( 'NONE', *, *, #114, .T. ) ;
#46 = PRODUCT_DEFINITION_CONTEXT ( 'detailed design', #13, 'design' ) ;
#47 = PRODUCT_DEFINITION_FORMATION_WITH_SPECIFIED_SOURCE ( 'ÈÎºÎ', '', #35, .NOT_KNOWN. ) ;
#48 = ORIENTED_EDGE ( 'NONE', *, *, #33, .F. ) ;
#49 = VERTEX_POINT ( 'NONE', #50 ) ;
#50 = CARTESIAN_POINT ( 'NONE',  ( 1.376546919168801600, 0.0000000000000000000, -5.000000000000000000 ) ) ;
#51 = LINE ( 'NONE', #18, #182 ) ;
#52 = CARTESIAN_POINT ( 'NONE',  ( 1.376546919168801300, 10.00000000000000000, 5.000000000000000000 ) ) ;
#53 = STYLED_ITEM ( 'NONE', ( #171 ), #198 ) ;
#54 = VECTOR ( 'NONE', #174, 1000.000000000000000 ) ;
#55 = DIRECTION ( 'NONE',  ( 0.0000000000000000000, 0.0000000000000000000, -1.000000000000000000 ) ) ;
#56 = CARTESIAN_POINT ( 'NONE',  ( 4.355204334851265500, 0.0000000000000000000, 4.286263797015675000E-017 ) ) ;
#57 = EDGE_CURVE ( 'NONE', #108, #86, #76, .T. ) ;
#58 =( NAMED_UNIT ( * ) SI_UNIT ( $, .STERADIAN. ) SOLID_ANGLE_UNIT ( ) );
#59 = APPLICATION_PROTOCOL_DEFINITION ( 'draft international standard', 'automotive_design', 1998, #75 ) ;
#60 =( LENGTH_UNIT ( ) NAMED_UNIT ( * ) SI_UNIT ( .MILLI., .METRE. ) );
#61 = FACE_OUTER_BOUND ( 'NONE', #196, .T. ) ;
#62 = VERTEX_POINT ( 'NONE', #5 ) ;
#63 = SURFACE_STYLE_FILL_AREA ( #188 ) ;
#64 = PRESENTATION_LAYER_ASSIGNMENT (  '', '', ( #176 ) ) ;
#65 = VERTEX_POINT ( 'NONE', #83 ) ;
#66 = CARTESIAN_POINT ( 'NONE',  ( 1.376546919168801300, 0.0000000000000000000, 5.000000000000000000 ) ) ;
#67 = EDGE_CURVE ( 'NONE', #189, #65, #167, .T. ) ;
#68 = DIRECTION ( 'NONE',  ( 0.0000000000000000000, -0.0000000000000000000, 1.000000000000000000 ) ) ;
#69 = DIRECTION ( 'NONE',  ( 1.000000000000000000, 0.0000000000000000000, -8.679443822464537500E-016 ) ) ;
#70 = COLOUR_RGB ( '',1.000000000000000000, 1.000000000000000000, 1.000000000000000000 ) ;
#71 = ORIENTED_EDGE ( 'NONE', *, *, #147, .T. ) ;
#72 = PLANE ( 'NONE',  #146 ) ;
#73 = ORIENTED_EDGE ( 'NONE', *, *, #67, .T. ) ;
#74 = DIRECTION ( 'NONE',  ( -0.0000000000000000000, -1.000000000000000000, -0.0000000000000000000 ) ) ;
#75 = APPLICATION_CONTEXT ( 'automotive_design' ) ;
#76 = LINE ( 'NONE', #118, #29 ) ;
#77 = SHAPE_DEFINITION_REPRESENTATION ( #31, #198 ) ;
#78 = FACE_OUTER_BOUND ( 'NONE', #7, .T. ) ;
#79 = EDGE_CURVE ( 'NONE', #86, #189, #120, .T. ) ;
#80 = AXIS2_PLACEMENT_3D ( 'NONE', #56, #140, #38 ) ;
#81 = LINE ( 'NONE', #168, #34 ) ;
#82 = ORIENTED_EDGE ( 'NONE', *, *, #164, .F. ) ;
#83 = CARTESIAN_POINT ( 'NONE',  ( 3.375204334851262400, 0.0000000000000000000, -5.000000000000001800 ) ) ;
#84 = SURFACE_SIDE_STYLE ('',( #162 ) ) ;
#85 = DIRECTION ( 'NONE',  ( 0.0000000000000000000, 1.000000000000000000, 0.0000000000000000000 ) ) ;
#86 = VERTEX_POINT ( 'NONE', #32 ) ;
#87 = ORIENTED_EDGE ( 'NONE', *, *, #121, .F. ) ;
#88 = DIRECTION ( 'NONE',  ( -0.0000000000000000000, -1.000000000000000000, -0.0000000000000000000 ) ) ;
#89 = CARTESIAN_POINT ( 'NONE',  ( 3.375204334851262400, 10.00000000000000000, -5.000000000000001800 ) ) ;
#90 = DIRECTION ( 'NONE',  ( 3.035766082959411900E-016, 0.0000000000000000000, 1.000000000000000000 ) ) ;
#91 = EDGE_CURVE ( 'NONE', #62, #130, #81, .T. ) ;
#92 = ADVANCED_FACE ( 'NONE', ( #16 ), #133, .F. ) ;
#93 = DIRECTION ( 'NONE',  ( 1.000000000000000000, 0.0000000000000000000, 0.0000000000000000000 ) ) ;
#94 = AXIS2_PLACEMENT_3D ( 'NONE', #22, #170, #69 ) ;
#95 = ORIENTED_EDGE ( 'NONE', *, *, #158, .T. ) ;
#96 = CIRCLE ( 'NONE', #80, 5.820000000000011800 ) ;
#97 = FACE_OUTER_BOUND ( 'NONE', #173, .T. ) ;
#98 = ORIENTED_EDGE ( 'NONE', *, *, #14, .F. ) ;
#99 = DIRECTION ( 'NONE',  ( -0.0000000000000000000, -1.000000000000000000, -0.0000000000000000000 ) ) ;
#100 = MANIFOLD_SOLID_BREP ( 'Í¹Ì¨-À­Éì1', #137 ) ;
#101 = EDGE_CURVE ( 'NONE', #62, #189, #51, .T. ) ;
#102 = CARTESIAN_POINT ( 'NONE',  ( 1.376546919168801600, 10.00000000000000000, -5.000000000000000000 ) ) ;
#103 = ORIENTED_EDGE ( 'NONE', *, *, #33, .T. ) ;
#104 = DIRECTION ( 'NONE',  ( 0.0000000000000000000, 1.000000000000000000, 0.0000000000000000000 ) ) ;
#105 = PLANE ( 'NONE',  #1 ) ;
#106 = PRODUCT_DEFINITION ( 'Î´Öª', '', #47, #46 ) ;
#107 = ADVANCED_FACE ( 'NONE', ( #128 ), #105, .F. ) ;
#108 = VERTEX_POINT ( 'NONE', #52 ) ;
#109 =( NAMED_UNIT ( * ) SI_UNIT ( $, .STERADIAN. ) SOLID_ANGLE_UNIT ( ) );
#110 = LINE ( 'NONE', #37, #54 ) ;
#111 = LINE ( 'NONE', #102, #195 ) ;
#112 = ORIENTED_EDGE ( 'NONE', *, *, #114, .F. ) ;
#113 = DIRECTION ( 'NONE',  ( 0.0000000000000000000, 0.0000000000000000000, 1.000000000000000000 ) ) ;
#114 = EDGE_CURVE ( 'NONE', #49, #86, #96, .T. ) ;
#115 =( GEOMETRIC_REPRESENTATION_CONTEXT ( 3 ) GLOBAL_UNCERTAINTY_ASSIGNED_CONTEXT ( ( #126 ) ) GLOBAL_UNIT_ASSIGNED_CONTEXT ( ( #201, #157, #58 ) ) REPRESENTATION_CONTEXT ( 'NONE', 'WORKASPACE' ) );
#116 = VECTOR ( 'NONE', #142, 1000.000000000000000 ) ;
#117 = ORIENTED_EDGE ( 'NONE', *, *, #91, .F. ) ;
#118 = CARTESIAN_POINT ( 'NONE',  ( 1.376546919168801300, 10.00000000000000000, 5.000000000000000000 ) ) ;
#119 = PLANE ( 'NONE',  #144 ) ;
#120 = LINE ( 'NONE', #66, #200 ) ;
#121 = EDGE_CURVE ( 'NONE', #124, #108, #150, .T. ) ;
#122 = SURFACE_STYLE_USAGE ( .BOTH. , #84 ) ;
#123 = CARTESIAN_POINT ( 'NONE',  ( 4.355204334851265500, 10.00000000000000000, 4.286263797015675000E-017 ) ) ;
#124 = VERTEX_POINT ( 'NONE', #187 ) ;
#125 = DIRECTION ( 'NONE',  ( -0.0000000000000000000, -1.000000000000000000, -0.0000000000000000000 ) ) ;
#126 = UNCERTAINTY_MEASURE_WITH_UNIT (LENGTH_MEASURE( 1.000000000000000100E-005 ), #201, 'distance_accuracy_value', 'NONE');
#127 =( NAMED_UNIT ( * ) PLANE_ANGLE_UNIT ( ) SI_UNIT ( $, .RADIAN. ) );
#128 = FACE_OUTER_BOUND ( 'NONE', #2, .T. ) ;
#129 = SURFACE_STYLE_USAGE ( .BOTH. , #143 ) ;
#130 = VERTEX_POINT ( 'NONE', #9 ) ;
#131 = ORIENTED_EDGE ( 'NONE', *, *, #67, .F. ) ;
#132 = ORIENTED_EDGE ( 'NONE', *, *, #79, .T. ) ;
#133 = PLANE ( 'NONE',  #94 ) ;
#134 = DIRECTION ( 'NONE',  ( 0.0000000000000000000, 0.0000000000000000000, -1.000000000000000000 ) ) ;
#135 = CARTESIAN_POINT ( 'NONE',  ( 1.376546919168801300, 10.00000000000000000, 5.000000000000000000 ) ) ;
#136 = AXIS2_PLACEMENT_3D ( 'NONE', #123, #85, #172 ) ;
#137 = CLOSED_SHELL ( 'NONE', ( #175, #12, #107, #92, #159, #24 ) ) ;
#138 = PRODUCT_CONTEXT ( 'NONE', #75, 'mechanical' ) ;
#139 = DIRECTION ( 'NONE',  ( -1.000000000000000000, -0.0000000000000000000, 8.679443822464537500E-016 ) ) ;
#140 = DIRECTION ( 'NONE',  ( 0.0000000000000000000, 1.000000000000000000, 0.0000000000000000000 ) ) ;
#141 = LINE ( 'NONE', #89, #190 ) ;
#142 = DIRECTION ( 'NONE',  ( -1.000000000000000000, -0.0000000000000000000, 8.679443822464537500E-016 ) ) ;
#143 = SURFACE_SIDE_STYLE ('',( #63 ) ) ;
#144 = AXIS2_PLACEMENT_3D ( 'NONE', #135, #134, #23 ) ;
#145 = VECTOR ( 'NONE', #139, 1000.000000000000000 ) ;
#146 = AXIS2_PLACEMENT_3D ( 'NONE', #152, #181, #68 ) ;
#147 = EDGE_CURVE ( 'NONE', #130, #65, #141, .T. ) ;
#148 = AXIS2_PLACEMENT_3D ( 'NONE', #203, #104, #186 ) ;
#149 = ORIENTED_EDGE ( 'NONE', *, *, #101, .T. ) ;
#150 = CIRCLE ( 'NONE', #148, 5.820000000000011800 ) ;
#151 = ORIENTED_EDGE ( 'NONE', *, *, #14, .T. ) ;
#152 = CARTESIAN_POINT ( 'NONE',  ( 4.355204334851265500, 0.0000000000000000000, 4.286263797015675000E-017 ) ) ;
#153 = FILL_AREA_STYLE_COLOUR ( '', #70 ) ;
#154 = FACE_OUTER_BOUND ( 'NONE', #28, .T. ) ;
#155 = ORIENTED_EDGE ( 'NONE', *, *, #147, .F. ) ;
#156 = PLANE ( 'NONE',  #136 ) ;
#157 =( NAMED_UNIT ( * ) PLANE_ANGLE_UNIT ( ) SI_UNIT ( $, .RADIAN. ) );
#158 = EDGE_CURVE ( 'NONE', #108, #62, #110, .T. ) ;
#159 = ADVANCED_FACE ( 'NONE', ( #97 ), #156, .T. ) ;
#160 = APPLICATION_PROTOCOL_DEFINITION ( 'draft international standard', 'automotive_design', 1998, #13 ) ;
#161 =( GEOMETRIC_REPRESENTATION_CONTEXT ( 3 ) GLOBAL_UNCERTAINTY_ASSIGNED_CONTEXT ( ( #179 ) ) GLOBAL_UNIT_ASSIGNED_CONTEXT ( ( #185, #127, #109 ) ) REPRESENTATION_CONTEXT ( 'NONE', 'WORKASPACE' ) );
#162 = SURFACE_STYLE_FILL_AREA ( #184 ) ;
#163 = ORIENTED_EDGE ( 'NONE', *, *, #164, .T. ) ;
#164 = EDGE_CURVE ( 'NONE', #65, #49, #19, .T. ) ;
#165 = AXIS2_PLACEMENT_3D ( 'NONE', #42, #113, #93 ) ;
#166 = COLOUR_RGB ( '',1.000000000000000000, 1.000000000000000000, 1.000000000000000000 ) ;
#167 = LINE ( 'NONE', #4, #204 ) ;
#168 = CARTESIAN_POINT ( 'NONE',  ( 3.375204334851262400, 10.00000000000000000, -5.000000000000001800 ) ) ;
#169 = CARTESIAN_POINT ( 'NONE',  ( 1.376546919168801600, 10.00000000000000000, -5.000000000000000000 ) ) ;
#170 = DIRECTION ( 'NONE',  ( 8.679443822464537500E-016, -0.0000000000000000000, 1.000000000000000000 ) ) ;
#171 = PRESENTATION_STYLE_ASSIGNMENT (( #129 ) ) ;
#172 = DIRECTION ( 'NONE',  ( 0.0000000000000000000, -0.0000000000000000000, 1.000000000000000000 ) ) ;
#173 = EDGE_LOOP ( 'NONE', ( #177, #95, #193, #103 ) ) ;
#174 = DIRECTION ( 'NONE',  ( 1.000000000000000000, 0.0000000000000000000, 0.0000000000000000000 ) ) ;
#175 = ADVANCED_FACE ( 'NONE', ( #61 ), #194, .T. ) ;
#176 = STYLED_ITEM ( 'NONE', ( #41 ), #100 ) ;
#177 = ORIENTED_EDGE ( 'NONE', *, *, #121, .T. ) ;
#178 = ORIENTED_EDGE ( 'NONE', *, *, #101, .F. ) ;
#179 = UNCERTAINTY_MEASURE_WITH_UNIT (LENGTH_MEASURE( 1.000000000000000100E-005 ), #185, 'distance_accuracy_value', 'NONE');
#180 = DIRECTION ( 'NONE',  ( 1.000000000000000000, 0.0000000000000000000, 0.0000000000000000000 ) ) ;
#181 = DIRECTION ( 'NONE',  ( 0.0000000000000000000, 1.000000000000000000, 0.0000000000000000000 ) ) ;
#182 = VECTOR ( 'NONE', #125, 1000.000000000000000 ) ;
#183 = DIRECTION ( 'NONE',  ( -3.035766082959411900E-016, -0.0000000000000000000, -1.000000000000000000 ) ) ;
#184 = FILL_AREA_STYLE ('',( #153 ) ) ;
#185 =( LENGTH_UNIT ( ) NAMED_UNIT ( * ) SI_UNIT ( .MILLI., .METRE. ) );
#186 = DIRECTION ( 'NONE',  ( 0.0000000000000000000, 0.0000000000000000000, 1.000000000000000000 ) ) ;
#187 = CARTESIAN_POINT ( 'NONE',  ( 1.376546919168801600, 10.00000000000000000, -5.000000000000000000 ) ) ;
#188 = FILL_AREA_STYLE ('',( #11 ) ) ;
#189 = VERTEX_POINT ( 'NONE', #40 ) ;
#190 = VECTOR ( 'NONE', #74, 1000.000000000000000 ) ;
#191 =( NAMED_UNIT ( * ) SI_UNIT ( $, .STERADIAN. ) SOLID_ANGLE_UNIT ( ) );
#192 = ORIENTED_EDGE ( 'NONE', *, *, #158, .F. ) ;
#193 = ORIENTED_EDGE ( 'NONE', *, *, #91, .T. ) ;
#194 = CYLINDRICAL_SURFACE ( 'NONE', #17, 5.820000000000011800 ) ;
#195 = VECTOR ( 'NONE', #199, 1000.000000000000000 ) ;
#196 = EDGE_LOOP ( 'NONE', ( #45, #27, #87, #151 ) ) ;
#197 = DIRECTION ( 'NONE',  ( -3.035766082959411900E-016, -0.0000000000000000000, -1.000000000000000000 ) ) ;
#198 = ADVANCED_BREP_SHAPE_REPRESENTATION ( '155264', ( #100, #165 ), #161 ) ;
#199 = DIRECTION ( 'NONE',  ( -0.0000000000000000000, -1.000000000000000000, -0.0000000000000000000 ) ) ;
#200 = VECTOR ( 'NONE', #180, 1000.000000000000000 ) ;
#201 =( LENGTH_UNIT ( ) NAMED_UNIT ( * ) SI_UNIT ( .MILLI., .METRE. ) );
#202 = CARTESIAN_POINT ( 'NONE',  ( 1.376546919168801600, 0.0000000000000000000, -5.000000000000000000 ) ) ;
#203 = CARTESIAN_POINT ( 'NONE',  ( 4.355204334851265500, 10.00000000000000000, 4.286263797015675000E-017 ) ) ;
#204 = VECTOR ( 'NONE', #197, 1000.000000000000000 ) ;
ENDSEC;
END-ISO-10303-21;
