ISO-10303-21;
HEADER;
FILE_DESCRIPTION (( 'STEP AP214' ),
    '1' );
FILE_NAME ('155265.STEP',
    '2019-06-25T02:16:13',
    ( 'user' ),
    ( 'Î¢ÈíÖÐ¹ú' ),
    'SwSTEP 2.0',
    'SolidWorks 2016',
    '' );
FILE_SCHEMA (( 'AUTOMOTIVE_DESIGN' ));
ENDSEC;

DATA;
#1 = DIRECTION ( 'NONE',  ( -3.035766082959411900E-016, -0.0000000000000000000, -1.000000000000000000 ) ) ;
#2 = SHAPE_DEFINITION_REPRESENTATION ( #94, #58 ) ;
#3 =( LENGTH_UNIT ( ) NAMED_UNIT ( * ) SI_UNIT ( .MILLI., .METRE. ) );
#4 = ORIENTED_EDGE ( 'NONE', *, *, #35, .T. ) ;
#5 = DIRECTION ( 'NONE',  ( -1.000000000000000000, 0.0000000000000000000, -0.0000000000000000000 ) ) ;
#6 = VECTOR ( 'NONE', #22, 1000.000000000000000 ) ;
#7 = EDGE_LOOP ( 'NONE', ( #169, #23, #199, #108 ) ) ;
#8 =( GEOMETRIC_REPRESENTATION_CONTEXT ( 3 ) GLOBAL_UNCERTAINTY_ASSIGNED_CONTEXT ( ( #181 ) ) GLOBAL_UNIT_ASSIGNED_CONTEXT ( ( #80, #131, #43 ) ) REPRESENTATION_CONTEXT ( 'NONE', 'WORKASPACE' ) );
#9 = FACE_OUTER_BOUND ( 'NONE', #71, .T. ) ;
#10 = DIRECTION ( 'NONE',  ( 8.651994439384411600E-016, -0.0000000000000000000, 1.000000000000000000 ) ) ;
#11 = CARTESIAN_POINT ( 'NONE',  ( -1.314795665148736900, 10.00000000000000000, -5.000000000000001800 ) ) ;
#12 = PLANE ( 'NONE',  #147 ) ;
#13 = EDGE_LOOP ( 'NONE', ( #37, #70, #119, #55 ) ) ;
#14 = CARTESIAN_POINT ( 'NONE',  ( -3.319794036484066300, 0.0000000000000000000, -5.000000000000000000 ) ) ;
#15 = ORIENTED_EDGE ( 'NONE', *, *, #96, .F. ) ;
#16 = PRESENTATION_LAYER_ASSIGNMENT (  '', '', ( #60 ) ) ;
#17 = APPLICATION_PROTOCOL_DEFINITION ( 'draft international standard', 'automotive_design', 1998, #155 ) ;
#18 = EDGE_CURVE ( 'NONE', #91, #128, #140, .T. ) ;
#19 = VERTEX_POINT ( 'NONE', #106 ) ;
#20 = EDGE_CURVE ( 'NONE', #91, #45, #198, .T. ) ;
#21 = CARTESIAN_POINT ( 'NONE',  ( -3.319794036484066300, 0.0000000000000000000, -5.000000000000000000 ) ) ;
#22 = DIRECTION ( 'NONE',  ( -0.0000000000000000000, -1.000000000000000000, -0.0000000000000000000 ) ) ;
#23 = ORIENTED_EDGE ( 'NONE', *, *, #40, .F. ) ;
#24 = ORIENTED_EDGE ( 'NONE', *, *, #130, .T. ) ;
#25 = ORIENTED_EDGE ( 'NONE', *, *, #135, .F. ) ;
#26 = CLOSED_SHELL ( 'NONE', ( #152, #39, #120, #179, #122, #49 ) ) ;
#27 = PRODUCT_RELATED_PRODUCT_CATEGORY ( 'part', '', ( #100 ) ) ;
#28 = CARTESIAN_POINT ( 'NONE',  ( -1.314795665148734000, 10.00000000000000000, 5.000000000000000000 ) ) ;
#29 = DIRECTION ( 'NONE',  ( 0.0000000000000000000, 0.0000000000000000000, -1.000000000000000000 ) ) ;
#30 = DIRECTION ( 'NONE',  ( 0.0000000000000000000, -0.0000000000000000000, 1.000000000000000000 ) ) ;
#31 = ORIENTED_EDGE ( 'NONE', *, *, #57, .T. ) ;
#32 = SURFACE_SIDE_STYLE ('',( #124 ) ) ;
#33 = CARTESIAN_POINT ( 'NONE',  ( -3.319794036484066800, 10.00000000000000000, 5.000000000000000000 ) ) ;
#34 = DIRECTION ( 'NONE',  ( -3.035766082959411900E-016, -0.0000000000000000000, -1.000000000000000000 ) ) ;
#35 = EDGE_CURVE ( 'NONE', #19, #61, #183, .T. ) ;
#36 = PLANE ( 'NONE',  #84 ) ;
#37 = ORIENTED_EDGE ( 'NONE', *, *, #92, .T. ) ;
#38 = VECTOR ( 'NONE', #1, 1000.000000000000000 ) ;
#39 = ADVANCED_FACE ( 'NONE', ( #87 ), #194, .F. ) ;
#40 = EDGE_CURVE ( 'NONE', #64, #143, #161, .T. ) ;
#41 = ORIENTED_EDGE ( 'NONE', *, *, #20, .T. ) ;
#42 = AXIS2_PLACEMENT_3D ( 'NONE', #193, #77, #121 ) ;
#43 =( NAMED_UNIT ( * ) SI_UNIT ( $, .STERADIAN. ) SOLID_ANGLE_UNIT ( ) );
#44 = COLOUR_RGB ( '',1.000000000000000000, 1.000000000000000000, 1.000000000000000000 ) ;
#45 = VERTEX_POINT ( 'NONE', #98 ) ;
#46 = CARTESIAN_POINT ( 'NONE',  ( -1.314795665148736900, 0.0000000000000000000, -5.000000000000001800 ) ) ;
#47 = DIRECTION ( 'NONE',  ( 1.000000000000000000, 0.0000000000000000000, 0.0000000000000000000 ) ) ;
#48 = PRODUCT_CONTEXT ( 'NONE', #155, 'mechanical' ) ;
#49 = ADVANCED_FACE ( 'NONE', ( #116 ), #36, .F. ) ;
#50 = LINE ( 'NONE', #99, #6 ) ;
#51 = CARTESIAN_POINT ( 'NONE',  ( -3.319794036484066800, 10.00000000000000000, 5.000000000000000000 ) ) ;
#52 = SURFACE_STYLE_USAGE ( .BOTH. , #32 ) ;
#53 = SURFACE_SIDE_STYLE ('',( #192 ) ) ;
#54 =( NAMED_UNIT ( * ) PLANE_ANGLE_UNIT ( ) SI_UNIT ( $, .RADIAN. ) );
#55 = ORIENTED_EDGE ( 'NONE', *, *, #135, .T. ) ;
#56 = DIRECTION ( 'NONE',  ( -1.000000000000000000, 0.0000000000000000000, 3.035766082959411900E-016 ) ) ;
#57 = EDGE_CURVE ( 'NONE', #45, #129, #133, .T. ) ;
#58 = ADVANCED_BREP_SHAPE_REPRESENTATION ( '155265', ( #177, #42 ), #165 ) ;
#59 = CIRCLE ( 'NONE', #167, 9.160000000000000100 ) ;
#60 = STYLED_ITEM ( 'NONE', ( #190 ), #58 ) ;
#61 = VERTEX_POINT ( 'NONE', #149 ) ;
#62 = AXIS2_PLACEMENT_3D ( 'NONE', #186, #170, #112 ) ;
#63 = CARTESIAN_POINT ( 'NONE',  ( 4.355204334851265500, 10.00000000000000000, 4.286263797015675000E-017 ) ) ;
#64 = VERTEX_POINT ( 'NONE', #46 ) ;
#65 = AXIS2_PLACEMENT_3D ( 'NONE', #134, #103, #29 ) ;
#66 = FILL_AREA_STYLE ('',( #110 ) ) ;
#67 = ORIENTED_EDGE ( 'NONE', *, *, #18, .T. ) ;
#68 =( NAMED_UNIT ( * ) SI_UNIT ( $, .STERADIAN. ) SOLID_ANGLE_UNIT ( ) );
#69 = DIRECTION ( 'NONE',  ( -0.0000000000000000000, -1.000000000000000000, -0.0000000000000000000 ) ) ;
#70 = ORIENTED_EDGE ( 'NONE', *, *, #18, .F. ) ;
#71 = EDGE_LOOP ( 'NONE', ( #105, #15, #111, #31 ) ) ;
#72 = VECTOR ( 'NONE', #172, 1000.000000000000000 ) ;
#73 = AXIS2_PLACEMENT_3D ( 'NONE', #89, #85, #5 ) ;
#74 = UNCERTAINTY_MEASURE_WITH_UNIT (LENGTH_MEASURE( 1.000000000000000100E-005 ), #97, 'distance_accuracy_value', 'NONE');
#75 = PRODUCT_DEFINITION_CONTEXT ( 'detailed design', #137, 'design' ) ;
#76 = CARTESIAN_POINT ( 'NONE',  ( -3.319794036484066800, 0.0000000000000000000, 5.000000000000000000 ) ) ;
#77 = DIRECTION ( 'NONE',  ( 0.0000000000000000000, 0.0000000000000000000, 1.000000000000000000 ) ) ;
#78 = LINE ( 'NONE', #185, #123 ) ;
#79 = PLANE ( 'NONE',  #113 ) ;
#80 =( LENGTH_UNIT ( ) NAMED_UNIT ( * ) SI_UNIT ( .MILLI., .METRE. ) );
#81 = CARTESIAN_POINT ( 'NONE',  ( -1.314795665148736900, 0.0000000000000000000, -5.000000000000001800 ) ) ;
#82 = VECTOR ( 'NONE', #117, 1000.000000000000000 ) ;
#83 = CARTESIAN_POINT ( 'NONE',  ( 4.355204334851265500, 0.0000000000000000000, 4.286263797015675000E-017 ) ) ;
#84 = AXIS2_PLACEMENT_3D ( 'NONE', #83, #115, #30 ) ;
#85 = DIRECTION ( 'NONE',  ( 0.0000000000000000000, 0.0000000000000000000, -1.000000000000000000 ) ) ;
#86 = VECTOR ( 'NONE', #34, 1000.000000000000000 ) ;
#87 = FACE_OUTER_BOUND ( 'NONE', #144, .T. ) ;
#88 = FACE_OUTER_BOUND ( 'NONE', #125, .T. ) ;
#89 = CARTESIAN_POINT ( 'NONE',  ( -3.319794036484066800, 10.00000000000000000, 5.000000000000000000 ) ) ;
#90 = CIRCLE ( 'NONE', #62, 9.160000000000000100 ) ;
#91 = VERTEX_POINT ( 'NONE', #201 ) ;
#92 = EDGE_CURVE ( 'NONE', #143, #128, #90, .T. ) ;
#93 = VECTOR ( 'NONE', #153, 1000.000000000000000 ) ;
#94 = PRODUCT_DEFINITION_SHAPE ( 'NONE', 'NONE',  #114 ) ;
#95 = LINE ( 'NONE', #11, #93 ) ;
#96 = EDGE_CURVE ( 'NONE', #19, #64, #95, .T. ) ;
#97 =( LENGTH_UNIT ( ) NAMED_UNIT ( * ) SI_UNIT ( .MILLI., .METRE. ) );
#98 = CARTESIAN_POINT ( 'NONE',  ( -1.314795665148734000, 10.00000000000000000, 5.000000000000000000 ) ) ;
#99 = CARTESIAN_POINT ( 'NONE',  ( -3.319794036484066300, 10.00000000000000000, -5.000000000000000000 ) ) ;
#100 = PRODUCT ( '155265', '155265', '', ( #48 ) ) ;
#101 = ORIENTED_EDGE ( 'NONE', *, *, #40, .T. ) ;
#102 = CARTESIAN_POINT ( 'NONE',  ( 4.355204334851265500, 10.00000000000000000, 4.286263797015675000E-017 ) ) ;
#103 = DIRECTION ( 'NONE',  ( -0.0000000000000000000, -1.000000000000000000, -0.0000000000000000000 ) ) ;
#104 = ORIENTED_EDGE ( 'NONE', *, *, #35, .F. ) ;
#105 = ORIENTED_EDGE ( 'NONE', *, *, #188, .T. ) ;
#106 = CARTESIAN_POINT ( 'NONE',  ( -1.314795665148736900, 10.00000000000000000, -5.000000000000001800 ) ) ;
#107 = CARTESIAN_POINT ( 'NONE',  ( -1.314795665148736900, 10.00000000000000000, -5.000000000000001800 ) ) ;
#108 = ORIENTED_EDGE ( 'NONE', *, *, #130, .F. ) ;
#109 = VECTOR ( 'NONE', #163, 1000.000000000000000 ) ;
#110 = FILL_AREA_STYLE_COLOUR ( '', #168 ) ;
#111 = ORIENTED_EDGE ( 'NONE', *, *, #157, .F. ) ;
#112 = DIRECTION ( 'NONE',  ( 0.0000000000000000000, 0.0000000000000000000, 1.000000000000000000 ) ) ;
#113 = AXIS2_PLACEMENT_3D ( 'NONE', #160, #56, #196 ) ;
#114 = PRODUCT_DEFINITION ( 'Î´Öª', '', #203, #75 ) ;
#115 = DIRECTION ( 'NONE',  ( 0.0000000000000000000, 1.000000000000000000, 0.0000000000000000000 ) ) ;
#116 = FACE_OUTER_BOUND ( 'NONE', #7, .T. ) ;
#117 = DIRECTION ( 'NONE',  ( -1.000000000000000000, -0.0000000000000000000, 8.651994439384411600E-016 ) ) ;
#118 = EDGE_CURVE ( 'NONE', #61, #91, #59, .T. ) ;
#119 = ORIENTED_EDGE ( 'NONE', *, *, #118, .F. ) ;
#120 = ADVANCED_FACE ( 'NONE', ( #9 ), #79, .F. ) ;
#121 = DIRECTION ( 'NONE',  ( 1.000000000000000000, 0.0000000000000000000, 0.0000000000000000000 ) ) ;
#122 = ADVANCED_FACE ( 'NONE', ( #88 ), #12, .T. ) ;
#123 = VECTOR ( 'NONE', #47, 1000.000000000000000 ) ;
#124 = SURFACE_STYLE_FILL_AREA ( #66 ) ;
#125 = EDGE_LOOP ( 'NONE', ( #136, #41, #175, #4 ) ) ;
#126 = LINE ( 'NONE', #107, #86 ) ;
#127 = FACE_OUTER_BOUND ( 'NONE', #195, .T. ) ;
#128 = VERTEX_POINT ( 'NONE', #76 ) ;
#129 = VERTEX_POINT ( 'NONE', #189 ) ;
#130 = EDGE_CURVE ( 'NONE', #128, #129, #78, .T. ) ;
#131 =( NAMED_UNIT ( * ) PLANE_ANGLE_UNIT ( ) SI_UNIT ( $, .RADIAN. ) );
#132 = DIRECTION ( 'NONE',  ( 0.0000000000000000000, 1.000000000000000000, 0.0000000000000000000 ) ) ;
#133 = LINE ( 'NONE', #28, #158 ) ;
#134 = CARTESIAN_POINT ( 'NONE',  ( 4.355204334851265500, 10.00000000000000000, 4.286263797015675000E-017 ) ) ;
#135 = EDGE_CURVE ( 'NONE', #61, #143, #50, .T. ) ;
#136 = ORIENTED_EDGE ( 'NONE', *, *, #118, .T. ) ;
#137 = APPLICATION_CONTEXT ( 'automotive_design' ) ;
#138 = FILL_AREA_STYLE ('',( #191 ) ) ;
#139 = CARTESIAN_POINT ( 'NONE',  ( -3.319794036484066300, 10.00000000000000000, -5.000000000000000000 ) ) ;
#140 = LINE ( 'NONE', #33, #72 ) ;
#141 = DIRECTION ( 'NONE',  ( 0.0000000000000000000, 0.0000000000000000000, 1.000000000000000000 ) ) ;
#142 = UNCERTAINTY_MEASURE_WITH_UNIT (LENGTH_MEASURE( 1.000000000000000100E-005 ), #3, 'distance_accuracy_value', 'NONE');
#143 = VERTEX_POINT ( 'NONE', #21 ) ;
#144 = EDGE_LOOP ( 'NONE', ( #24, #187, #148, #67 ) ) ;
#145 = PRESENTATION_LAYER_ASSIGNMENT (  '', '', ( #146 ) ) ;
#146 = STYLED_ITEM ( 'NONE', ( #164 ), #177 ) ;
#147 = AXIS2_PLACEMENT_3D ( 'NONE', #63, #159, #150 ) ;
#148 = ORIENTED_EDGE ( 'NONE', *, *, #20, .F. ) ;
#149 = CARTESIAN_POINT ( 'NONE',  ( -3.319794036484066300, 10.00000000000000000, -5.000000000000000000 ) ) ;
#150 = DIRECTION ( 'NONE',  ( 0.0000000000000000000, -0.0000000000000000000, 1.000000000000000000 ) ) ;
#151 = ORIENTED_EDGE ( 'NONE', *, *, #96, .T. ) ;
#152 = ADVANCED_FACE ( 'NONE', ( #173 ), #204, .T. ) ;
#153 = DIRECTION ( 'NONE',  ( -0.0000000000000000000, -1.000000000000000000, -0.0000000000000000000 ) ) ;
#154 = APPLICATION_PROTOCOL_DEFINITION ( 'draft international standard', 'automotive_design', 1998, #137 ) ;
#155 = APPLICATION_CONTEXT ( 'automotive_design' ) ;
#156 =( NAMED_UNIT ( * ) SI_UNIT ( $, .STERADIAN. ) SOLID_ANGLE_UNIT ( ) );
#157 = EDGE_CURVE ( 'NONE', #45, #19, #126, .T. ) ;
#158 = VECTOR ( 'NONE', #69, 1000.000000000000000 ) ;
#159 = DIRECTION ( 'NONE',  ( 0.0000000000000000000, 1.000000000000000000, 0.0000000000000000000 ) ) ;
#160 = CARTESIAN_POINT ( 'NONE',  ( -1.314795665148736900, 10.00000000000000000, -5.000000000000001800 ) ) ;
#161 = LINE ( 'NONE', #14, #82 ) ;
#162 =( GEOMETRIC_REPRESENTATION_CONTEXT ( 3 ) GLOBAL_UNCERTAINTY_ASSIGNED_CONTEXT ( ( #74 ) ) GLOBAL_UNIT_ASSIGNED_CONTEXT ( ( #97, #54, #156 ) ) REPRESENTATION_CONTEXT ( 'NONE', 'WORKASPACE' ) );
#163 = DIRECTION ( 'NONE',  ( -1.000000000000000000, -0.0000000000000000000, 8.651994439384411600E-016 ) ) ;
#164 = PRESENTATION_STYLE_ASSIGNMENT (( #166 ) ) ;
#165 =( GEOMETRIC_REPRESENTATION_CONTEXT ( 3 ) GLOBAL_UNCERTAINTY_ASSIGNED_CONTEXT ( ( #142 ) ) GLOBAL_UNIT_ASSIGNED_CONTEXT ( ( #3, #174, #68 ) ) REPRESENTATION_CONTEXT ( 'NONE', 'WORKASPACE' ) );
#166 = SURFACE_STYLE_USAGE ( .BOTH. , #53 ) ;
#167 = AXIS2_PLACEMENT_3D ( 'NONE', #102, #132, #141 ) ;
#168 = COLOUR_RGB ( '',1.000000000000000000, 1.000000000000000000, 1.000000000000000000 ) ;
#169 = ORIENTED_EDGE ( 'NONE', *, *, #92, .F. ) ;
#170 = DIRECTION ( 'NONE',  ( 0.0000000000000000000, 1.000000000000000000, 0.0000000000000000000 ) ) ;
#171 = DIRECTION ( 'NONE',  ( 1.000000000000000000, 0.0000000000000000000, 0.0000000000000000000 ) ) ;
#172 = DIRECTION ( 'NONE',  ( -0.0000000000000000000, -1.000000000000000000, -0.0000000000000000000 ) ) ;
#173 = FACE_OUTER_BOUND ( 'NONE', #13, .T. ) ;
#174 =( NAMED_UNIT ( * ) PLANE_ANGLE_UNIT ( ) SI_UNIT ( $, .RADIAN. ) );
#175 = ORIENTED_EDGE ( 'NONE', *, *, #157, .T. ) ;
#176 = DIRECTION ( 'NONE',  ( 1.000000000000000000, 0.0000000000000000000, -8.651994439384411600E-016 ) ) ;
#177 = MANIFOLD_SOLID_BREP ( 'Í¹Ì¨-À­Éì1', #26 ) ;
#178 = MECHANICAL_DESIGN_GEOMETRIC_PRESENTATION_REPRESENTATION (  '', ( #60 ), #162 ) ;
#179 = ADVANCED_FACE ( 'NONE', ( #127 ), #184, .F. ) ;
#180 = LINE ( 'NONE', #81, #38 ) ;
#181 = UNCERTAINTY_MEASURE_WITH_UNIT (LENGTH_MEASURE( 1.000000000000000100E-005 ), #80, 'distance_accuracy_value', 'NONE');
#182 = CARTESIAN_POINT ( 'NONE',  ( -3.319794036484066300, 10.00000000000000000, -5.000000000000000000 ) ) ;
#183 = LINE ( 'NONE', #182, #109 ) ;
#184 = PLANE ( 'NONE',  #200 ) ;
#185 = CARTESIAN_POINT ( 'NONE',  ( -3.319794036484066800, 0.0000000000000000000, 5.000000000000000000 ) ) ;
#186 = CARTESIAN_POINT ( 'NONE',  ( 4.355204334851265500, 0.0000000000000000000, 4.286263797015675000E-017 ) ) ;
#187 = ORIENTED_EDGE ( 'NONE', *, *, #57, .F. ) ;
#188 = EDGE_CURVE ( 'NONE', #129, #64, #180, .T. ) ;
#189 = CARTESIAN_POINT ( 'NONE',  ( -1.314795665148734000, 0.0000000000000000000, 5.000000000000000000 ) ) ;
#190 = PRESENTATION_STYLE_ASSIGNMENT (( #52 ) ) ;
#191 = FILL_AREA_STYLE_COLOUR ( '', #44 ) ;
#192 = SURFACE_STYLE_FILL_AREA ( #138 ) ;
#193 = CARTESIAN_POINT ( 'NONE',  ( 0.0000000000000000000, 0.0000000000000000000, 0.0000000000000000000 ) ) ;
#194 = PLANE ( 'NONE',  #73 ) ;
#195 = EDGE_LOOP ( 'NONE', ( #101, #25, #104, #151 ) ) ;
#196 = DIRECTION ( 'NONE',  ( 3.035766082959411900E-016, 0.0000000000000000000, 1.000000000000000000 ) ) ;
#197 = MECHANICAL_DESIGN_GEOMETRIC_PRESENTATION_REPRESENTATION (  '', ( #146 ), #8 ) ;
#198 = LINE ( 'NONE', #51, #202 ) ;
#199 = ORIENTED_EDGE ( 'NONE', *, *, #188, .F. ) ;
#200 = AXIS2_PLACEMENT_3D ( 'NONE', #139, #10, #176 ) ;
#201 = CARTESIAN_POINT ( 'NONE',  ( -3.319794036484066800, 10.00000000000000000, 5.000000000000000000 ) ) ;
#202 = VECTOR ( 'NONE', #171, 1000.000000000000000 ) ;
#203 = PRODUCT_DEFINITION_FORMATION_WITH_SPECIFIED_SOURCE ( 'ÈÎºÎ', '', #100, .NOT_KNOWN. ) ;
#204 = CYLINDRICAL_SURFACE ( 'NONE', #65, 9.160000000000000100 ) ;
ENDSEC;
END-ISO-10303-21;
