ISO-10303-21;
HEADER;
FILE_DESCRIPTION (( 'STEP AP214' ),
    '1' );
FILE_NAME ('155269.STEP',
    '2019-06-25T05:29:24',
    ( 'user' ),
    ( 'Î¢ÈíÖÐ¹ú' ),
    'SwSTEP 2.0',
    'SolidWorks 2016',
    '' );
FILE_SCHEMA (( 'AUTOMOTIVE_DESIGN' ));
ENDSEC;

DATA;
#1 = DIRECTION ( 'NONE',  ( 0.0000000000000000000, 1.000000000000000000, 0.0000000000000000000 ) ) ;
#2 = CARTESIAN_POINT ( 'NONE',  ( 4.355204334851265500, 10.00000000000000000, 4.286263797015675000E-017 ) ) ;
#3 = ORIENTED_EDGE ( 'NONE', *, *, #79, .F. ) ;
#4 =( GEOMETRIC_REPRESENTATION_CONTEXT ( 3 ) GLOBAL_UNCERTAINTY_ASSIGNED_CONTEXT ( ( #138 ) ) GLOBAL_UNIT_ASSIGNED_CONTEXT ( ( #33, #89, #146 ) ) REPRESENTATION_CONTEXT ( 'NONE', 'WORKASPACE' ) );
#5 = EDGE_LOOP ( 'NONE', ( #147, #172, #76, #83 ) ) ;
#6 = ADVANCED_BREP_SHAPE_REPRESENTATION ( '155269', ( #173, #187 ), #43 ) ;
#7 = DIRECTION ( 'NONE',  ( -2.596696137719013100E-015, 0.0000000000000000000, 1.000000000000000000 ) ) ;
#8 = EDGE_CURVE ( 'NONE', #134, #100, #45, .T. ) ;
#9 = DIRECTION ( 'NONE',  ( 3.469446951953616700E-016, 0.0000000000000000000, 1.000000000000000000 ) ) ;
#10 = LINE ( 'NONE', #197, #161 ) ;
#11 = EDGE_CURVE ( 'NONE', #124, #116, #94, .T. ) ;
#12 = ORIENTED_EDGE ( 'NONE', *, *, #11, .F. ) ;
#13 = ORIENTED_EDGE ( 'NONE', *, *, #40, .F. ) ;
#14 = VECTOR ( 'NONE', #127, 1000.000000000000000 ) ;
#15 = SURFACE_STYLE_USAGE ( .BOTH. , #135 ) ;
#16 = AXIS2_PLACEMENT_3D ( 'NONE', #69, #25, #105 ) ;
#17 = ADVANCED_FACE ( 'NONE', ( #123 ), #159, .F. ) ;
#18 = PRODUCT_DEFINITION_CONTEXT ( 'detailed design', #128, 'design' ) ;
#19 = PRESENTATION_LAYER_ASSIGNMENT (  '', '', ( #106 ) ) ;
#20 = EDGE_LOOP ( 'NONE', ( #164, #178, #34, #130 ) ) ;
#21 = CLOSED_SHELL ( 'NONE', ( #141, #77, #22, #199, #93, #17 ) ) ;
#22 = ADVANCED_FACE ( 'NONE', ( #108 ), #30, .F. ) ;
#23 = PRODUCT ( '155269', '155269', '', ( #62 ) ) ;
#24 =( NAMED_UNIT ( * ) SI_UNIT ( $, .STERADIAN. ) SOLID_ANGLE_UNIT ( ) );
#25 = DIRECTION ( 'NONE',  ( 0.0000000000000000000, 0.0000000000000000000, -1.000000000000000000 ) ) ;
#26 = LINE ( 'NONE', #174, #70 ) ;
#27 = COLOUR_RGB ( '',1.000000000000000000, 1.000000000000000000, 1.000000000000000000 ) ;
#28 =( LENGTH_UNIT ( ) NAMED_UNIT ( * ) SI_UNIT ( .MILLI., .METRE. ) );
#29 = AXIS2_PLACEMENT_3D ( 'NONE', #137, #163, #126 ) ;
#30 = PLANE ( 'NONE',  #201 ) ;
#31 = DIRECTION ( 'NONE',  ( 0.0000000000000000000, 0.0000000000000000000, -1.000000000000000000 ) ) ;
#32 = EDGE_LOOP ( 'NONE', ( #49, #13, #171, #151 ) ) ;
#33 =( LENGTH_UNIT ( ) NAMED_UNIT ( * ) SI_UNIT ( .MILLI., .METRE. ) );
#34 = ORIENTED_EDGE ( 'NONE', *, *, #56, .F. ) ;
#35 = FACE_OUTER_BOUND ( 'NONE', #113, .T. ) ;
#36 = CARTESIAN_POINT ( 'NONE',  ( -29.62894638279945500, 10.00000000000000000, -5.000000000000000000 ) ) ;
#37 = EDGE_CURVE ( 'NONE', #148, #92, #10, .T. ) ;
#38 = ORIENTED_EDGE ( 'NONE', *, *, #11, .T. ) ;
#39 = VERTEX_POINT ( 'NONE', #119 ) ;
#40 = EDGE_CURVE ( 'NONE', #100, #132, #145, .T. ) ;
#41 =( NAMED_UNIT ( * ) PLANE_ANGLE_UNIT ( ) SI_UNIT ( $, .RADIAN. ) );
#42 = ORIENTED_EDGE ( 'NONE', *, *, #56, .T. ) ;
#43 =( GEOMETRIC_REPRESENTATION_CONTEXT ( 3 ) GLOBAL_UNCERTAINTY_ASSIGNED_CONTEXT ( ( #97 ) ) GLOBAL_UNIT_ASSIGNED_CONTEXT ( ( #176, #41, #114 ) ) REPRESENTATION_CONTEXT ( 'NONE', 'WORKASPACE' ) );
#44 = ORIENTED_EDGE ( 'NONE', *, *, #78, .T. ) ;
#45 = LINE ( 'NONE', #185, #104 ) ;
#46 = CARTESIAN_POINT ( 'NONE',  ( -29.62894638279945500, 0.0000000000000000000, -5.000000000000000000 ) ) ;
#47 = DIRECTION ( 'NONE',  ( -0.0000000000000000000, -1.000000000000000000, -0.0000000000000000000 ) ) ;
#48 = CARTESIAN_POINT ( 'NONE',  ( -27.62479566514873100, 10.00000000000000000, -4.999999999999994700 ) ) ;
#49 = ORIENTED_EDGE ( 'NONE', *, *, #133, .F. ) ;
#50 = CARTESIAN_POINT ( 'NONE',  ( -27.62479566514873100, 0.0000000000000000000, -4.999999999999994700 ) ) ;
#51 = AXIS2_PLACEMENT_3D ( 'NONE', #169, #91, #193 ) ;
#52 = AXIS2_PLACEMENT_3D ( 'NONE', #2, #1, #121 ) ;
#53 = PLANE ( 'NONE',  #101 ) ;
#54 = EDGE_CURVE ( 'NONE', #39, #132, #26, .T. ) ;
#55 = VECTOR ( 'NONE', #96, 1000.000000000000000 ) ;
#56 = EDGE_CURVE ( 'NONE', #134, #39, #112, .T. ) ;
#57 = CARTESIAN_POINT ( 'NONE',  ( -27.62479566514873100, 10.00000000000000000, -4.999999999999994700 ) ) ;
#58 = CIRCLE ( 'NONE', #52, 34.35000000000000100 ) ;
#59 = MECHANICAL_DESIGN_GEOMETRIC_PRESENTATION_REPRESENTATION (  '', ( #122 ), #125 ) ;
#60 = CARTESIAN_POINT ( 'NONE',  ( -27.62479566514873100, 0.0000000000000000000, -4.999999999999994700 ) ) ;
#61 = VECTOR ( 'NONE', #196, 1000.000000000000000 ) ;
#62 = PRODUCT_CONTEXT ( 'NONE', #95, 'mechanical' ) ;
#63 = EDGE_CURVE ( 'NONE', #39, #148, #58, .T. ) ;
#64 = PRESENTATION_LAYER_ASSIGNMENT (  '', '', ( #122 ) ) ;
#65 = DIRECTION ( 'NONE',  ( -0.0000000000000000000, -1.000000000000000000, -0.0000000000000000000 ) ) ;
#66 = SHAPE_DEFINITION_REPRESENTATION ( #191, #6 ) ;
#67 = CARTESIAN_POINT ( 'NONE',  ( -29.62894638279945500, 0.0000000000000000000, 5.000000000000000000 ) ) ;
#68 = DIRECTION ( 'NONE',  ( 1.000000000000000000, 0.0000000000000000000, 0.0000000000000000000 ) ) ;
#69 = CARTESIAN_POINT ( 'NONE',  ( -29.62894638279945500, 10.00000000000000000, 5.000000000000000000 ) ) ;
#70 = VECTOR ( 'NONE', #47, 1000.000000000000000 ) ;
#71 = PRODUCT_RELATED_PRODUCT_CATEGORY ( 'part', '', ( #23 ) ) ;
#72 = ORIENTED_EDGE ( 'NONE', *, *, #143, .T. ) ;
#73 = DIRECTION ( 'NONE',  ( -1.000000000000000000, 0.0000000000000000000, 3.469446951953616700E-016 ) ) ;
#74 = FACE_OUTER_BOUND ( 'NONE', #20, .T. ) ;
#75 = DIRECTION ( 'NONE',  ( 1.000000000000000000, 0.0000000000000000000, 0.0000000000000000000 ) ) ;
#76 = ORIENTED_EDGE ( 'NONE', *, *, #63, .F. ) ;
#77 = ADVANCED_FACE ( 'NONE', ( #35 ), #136, .F. ) ;
#78 = EDGE_CURVE ( 'NONE', #92, #116, #86, .T. ) ;
#79 = EDGE_CURVE ( 'NONE', #124, #134, #87, .T. ) ;
#80 = DIRECTION ( 'NONE',  ( -0.0000000000000000000, -1.000000000000000000, -0.0000000000000000000 ) ) ;
#81 = PLANE ( 'NONE',  #29 ) ;
#82 = VECTOR ( 'NONE', #150, 1000.000000000000000 ) ;
#83 = ORIENTED_EDGE ( 'NONE', *, *, #54, .T. ) ;
#84 =( NAMED_UNIT ( * ) PLANE_ANGLE_UNIT ( ) SI_UNIT ( $, .RADIAN. ) );
#85 = EDGE_CURVE ( 'NONE', #148, #124, #203, .T. ) ;
#86 = LINE ( 'NONE', #183, #165 ) ;
#87 = LINE ( 'NONE', #57, #82 ) ;
#88 = DIRECTION ( 'NONE',  ( 1.000000000000000000, 0.0000000000000000000, 0.0000000000000000000 ) ) ;
#89 =( NAMED_UNIT ( * ) PLANE_ANGLE_UNIT ( ) SI_UNIT ( $, .RADIAN. ) );
#90 = CIRCLE ( 'NONE', #51, 34.35000000000000100 ) ;
#91 = DIRECTION ( 'NONE',  ( 0.0000000000000000000, 1.000000000000000000, 0.0000000000000000000 ) ) ;
#92 = VERTEX_POINT ( 'NONE', #67 ) ;
#93 = ADVANCED_FACE ( 'NONE', ( #180 ), #81, .T. ) ;
#94 = LINE ( 'NONE', #99, #198 ) ;
#95 = APPLICATION_CONTEXT ( 'automotive_design' ) ;
#96 = DIRECTION ( 'NONE',  ( -1.000000000000000000, -0.0000000000000000000, -2.596696137719013100E-015 ) ) ;
#97 = UNCERTAINTY_MEASURE_WITH_UNIT (LENGTH_MEASURE( 1.000000000000000100E-005 ), #176, 'distance_accuracy_value', 'NONE');
#98 = APPLICATION_PROTOCOL_DEFINITION ( 'draft international standard', 'automotive_design', 1998, #128 ) ;
#99 = CARTESIAN_POINT ( 'NONE',  ( -27.62479566514872800, 10.00000000000000000, 5.000000000000000000 ) ) ;
#100 = VERTEX_POINT ( 'NONE', #60 ) ;
#101 = AXIS2_PLACEMENT_3D ( 'NONE', #36, #7, #139 ) ;
#102 = DIRECTION ( 'NONE',  ( -0.0000000000000000000, -1.000000000000000000, -0.0000000000000000000 ) ) ;
#103 = PRODUCT_DEFINITION ( 'Î´Öª', '', #160, #18 ) ;
#104 = VECTOR ( 'NONE', #65, 1000.000000000000000 ) ;
#105 = DIRECTION ( 'NONE',  ( -1.000000000000000000, 0.0000000000000000000, -0.0000000000000000000 ) ) ;
#106 = STYLED_ITEM ( 'NONE', ( #144 ), #6 ) ;
#107 = FILL_AREA_STYLE_COLOUR ( '', #27 ) ;
#108 = FACE_OUTER_BOUND ( 'NONE', #140, .T. ) ;
#109 = CARTESIAN_POINT ( 'NONE',  ( -29.62894638279945500, 10.00000000000000000, 5.000000000000000000 ) ) ;
#110 = COLOUR_RGB ( '',1.000000000000000000, 1.000000000000000000, 1.000000000000000000 ) ;
#111 = SURFACE_STYLE_USAGE ( .BOTH. , #204 ) ;
#112 = LINE ( 'NONE', #156, #55 ) ;
#113 = EDGE_LOOP ( 'NONE', ( #44, #12, #177, #195 ) ) ;
#114 =( NAMED_UNIT ( * ) SI_UNIT ( $, .STERADIAN. ) SOLID_ANGLE_UNIT ( ) );
#115 = CARTESIAN_POINT ( 'NONE',  ( -27.62479566514872800, 0.0000000000000000000, 5.000000000000000000 ) ) ;
#116 = VERTEX_POINT ( 'NONE', #115 ) ;
#117 = UNCERTAINTY_MEASURE_WITH_UNIT (LENGTH_MEASURE( 1.000000000000000100E-005 ), #28, 'distance_accuracy_value', 'NONE');
#118 = PRESENTATION_STYLE_ASSIGNMENT (( #111 ) ) ;
#119 = CARTESIAN_POINT ( 'NONE',  ( -29.62894638279945500, 10.00000000000000000, -5.000000000000000000 ) ) ;
#120 = SURFACE_STYLE_FILL_AREA ( #166 ) ;
#121 = DIRECTION ( 'NONE',  ( 0.0000000000000000000, 0.0000000000000000000, 1.000000000000000000 ) ) ;
#122 = STYLED_ITEM ( 'NONE', ( #118 ), #173 ) ;
#123 = FACE_OUTER_BOUND ( 'NONE', #32, .T. ) ;
#124 = VERTEX_POINT ( 'NONE', #179 ) ;
#125 =( GEOMETRIC_REPRESENTATION_CONTEXT ( 3 ) GLOBAL_UNCERTAINTY_ASSIGNED_CONTEXT ( ( #117 ) ) GLOBAL_UNIT_ASSIGNED_CONTEXT ( ( #28, #84, #24 ) ) REPRESENTATION_CONTEXT ( 'NONE', 'WORKASPACE' ) );
#126 = DIRECTION ( 'NONE',  ( 0.0000000000000000000, -0.0000000000000000000, 1.000000000000000000 ) ) ;
#127 = DIRECTION ( 'NONE',  ( -1.000000000000000000, -0.0000000000000000000, -2.596696137719013100E-015 ) ) ;
#128 = APPLICATION_CONTEXT ( 'automotive_design' ) ;
#129 = DIRECTION ( 'NONE',  ( 0.0000000000000000000, 0.0000000000000000000, 1.000000000000000000 ) ) ;
#130 = ORIENTED_EDGE ( 'NONE', *, *, #8, .T. ) ;
#131 = DIRECTION ( 'NONE',  ( -0.0000000000000000000, -1.000000000000000000, -0.0000000000000000000 ) ) ;
#132 = VERTEX_POINT ( 'NONE', #142 ) ;
#133 = EDGE_CURVE ( 'NONE', #132, #92, #90, .T. ) ;
#134 = VERTEX_POINT ( 'NONE', #154 ) ;
#135 = SURFACE_SIDE_STYLE ('',( #184 ) ) ;
#136 = PLANE ( 'NONE',  #16 ) ;
#137 = CARTESIAN_POINT ( 'NONE',  ( 4.355204334851265500, 10.00000000000000000, 4.286263797015675000E-017 ) ) ;
#138 = UNCERTAINTY_MEASURE_WITH_UNIT (LENGTH_MEASURE( 1.000000000000000100E-005 ), #33, 'distance_accuracy_value', 'NONE');
#139 = DIRECTION ( 'NONE',  ( 1.000000000000000000, 0.0000000000000000000, 2.596696137719013100E-015 ) ) ;
#140 = EDGE_LOOP ( 'NONE', ( #72, #189, #3, #38 ) ) ;
#141 = ADVANCED_FACE ( 'NONE', ( #188 ), #158, .T. ) ;
#142 = CARTESIAN_POINT ( 'NONE',  ( -29.62894638279945500, 0.0000000000000000000, -5.000000000000000000 ) ) ;
#143 = EDGE_CURVE ( 'NONE', #116, #100, #181, .T. ) ;
#144 = PRESENTATION_STYLE_ASSIGNMENT (( #15 ) ) ;
#145 = LINE ( 'NONE', #46, #14 ) ;
#146 =( NAMED_UNIT ( * ) SI_UNIT ( $, .STERADIAN. ) SOLID_ANGLE_UNIT ( ) );
#147 = ORIENTED_EDGE ( 'NONE', *, *, #133, .T. ) ;
#148 = VERTEX_POINT ( 'NONE', #149 ) ;
#149 = CARTESIAN_POINT ( 'NONE',  ( -29.62894638279945500, 10.00000000000000000, 5.000000000000000000 ) ) ;
#150 = DIRECTION ( 'NONE',  ( -3.469446951953616200E-016, -0.0000000000000000000, -1.000000000000000000 ) ) ;
#151 = ORIENTED_EDGE ( 'NONE', *, *, #78, .F. ) ;
#152 = ORIENTED_EDGE ( 'NONE', *, *, #79, .T. ) ;
#153 = MECHANICAL_DESIGN_GEOMETRIC_PRESENTATION_REPRESENTATION (  '', ( #106 ), #4 ) ;
#154 = CARTESIAN_POINT ( 'NONE',  ( -27.62479566514873100, 10.00000000000000000, -4.999999999999994700 ) ) ;
#155 = AXIS2_PLACEMENT_3D ( 'NONE', #162, #80, #31 ) ;
#156 = CARTESIAN_POINT ( 'NONE',  ( -29.62894638279945500, 10.00000000000000000, -5.000000000000000000 ) ) ;
#157 = FILL_AREA_STYLE_COLOUR ( '', #110 ) ;
#158 = CYLINDRICAL_SURFACE ( 'NONE', #155, 34.35000000000000100 ) ;
#159 = PLANE ( 'NONE',  #168 ) ;
#160 = PRODUCT_DEFINITION_FORMATION_WITH_SPECIFIED_SOURCE ( 'ÈÎºÎ', '', #23, .NOT_KNOWN. ) ;
#161 = VECTOR ( 'NONE', #131, 1000.000000000000000 ) ;
#162 = CARTESIAN_POINT ( 'NONE',  ( 4.355204334851265500, 10.00000000000000000, 4.286263797015675000E-017 ) ) ;
#163 = DIRECTION ( 'NONE',  ( 0.0000000000000000000, 1.000000000000000000, 0.0000000000000000000 ) ) ;
#164 = ORIENTED_EDGE ( 'NONE', *, *, #40, .T. ) ;
#165 = VECTOR ( 'NONE', #68, 1000.000000000000000 ) ;
#166 = FILL_AREA_STYLE ('',( #157 ) ) ;
#167 = DIRECTION ( 'NONE',  ( 0.0000000000000000000, 1.000000000000000000, 0.0000000000000000000 ) ) ;
#168 = AXIS2_PLACEMENT_3D ( 'NONE', #175, #167, #200 ) ;
#169 = CARTESIAN_POINT ( 'NONE',  ( 4.355204334851265500, 0.0000000000000000000, 4.286263797015675000E-017 ) ) ;
#170 = ORIENTED_EDGE ( 'NONE', *, *, #63, .T. ) ;
#171 = ORIENTED_EDGE ( 'NONE', *, *, #143, .F. ) ;
#172 = ORIENTED_EDGE ( 'NONE', *, *, #37, .F. ) ;
#173 = MANIFOLD_SOLID_BREP ( 'Í¹Ì¨-À­Éì1', #21 ) ;
#174 = CARTESIAN_POINT ( 'NONE',  ( -29.62894638279945500, 10.00000000000000000, -5.000000000000000000 ) ) ;
#175 = CARTESIAN_POINT ( 'NONE',  ( 4.355204334851265500, 0.0000000000000000000, 4.286263797015675000E-017 ) ) ;
#176 =( LENGTH_UNIT ( ) NAMED_UNIT ( * ) SI_UNIT ( .MILLI., .METRE. ) );
#177 = ORIENTED_EDGE ( 'NONE', *, *, #85, .F. ) ;
#178 = ORIENTED_EDGE ( 'NONE', *, *, #54, .F. ) ;
#179 = CARTESIAN_POINT ( 'NONE',  ( -27.62479566514872800, 10.00000000000000000, 5.000000000000000000 ) ) ;
#180 = FACE_OUTER_BOUND ( 'NONE', #194, .T. ) ;
#181 = LINE ( 'NONE', #50, #61 ) ;
#182 = ORIENTED_EDGE ( 'NONE', *, *, #85, .T. ) ;
#183 = CARTESIAN_POINT ( 'NONE',  ( -29.62894638279945500, 0.0000000000000000000, 5.000000000000000000 ) ) ;
#184 = SURFACE_STYLE_FILL_AREA ( #190 ) ;
#185 = CARTESIAN_POINT ( 'NONE',  ( -27.62479566514873100, 10.00000000000000000, -4.999999999999994700 ) ) ;
#186 = APPLICATION_PROTOCOL_DEFINITION ( 'draft international standard', 'automotive_design', 1998, #95 ) ;
#187 = AXIS2_PLACEMENT_3D ( 'NONE', #192, #129, #88 ) ;
#188 = FACE_OUTER_BOUND ( 'NONE', #5, .T. ) ;
#189 = ORIENTED_EDGE ( 'NONE', *, *, #8, .F. ) ;
#190 = FILL_AREA_STYLE ('',( #107 ) ) ;
#191 = PRODUCT_DEFINITION_SHAPE ( 'NONE', 'NONE',  #103 ) ;
#192 = CARTESIAN_POINT ( 'NONE',  ( 0.0000000000000000000, 0.0000000000000000000, 0.0000000000000000000 ) ) ;
#193 = DIRECTION ( 'NONE',  ( 0.0000000000000000000, 0.0000000000000000000, 1.000000000000000000 ) ) ;
#194 = EDGE_LOOP ( 'NONE', ( #170, #182, #152, #42 ) ) ;
#195 = ORIENTED_EDGE ( 'NONE', *, *, #37, .T. ) ;
#196 = DIRECTION ( 'NONE',  ( -3.469446951953616200E-016, -0.0000000000000000000, -1.000000000000000000 ) ) ;
#197 = CARTESIAN_POINT ( 'NONE',  ( -29.62894638279945500, 10.00000000000000000, 5.000000000000000000 ) ) ;
#198 = VECTOR ( 'NONE', #102, 1000.000000000000000 ) ;
#199 = ADVANCED_FACE ( 'NONE', ( #74 ), #53, .F. ) ;
#200 = DIRECTION ( 'NONE',  ( 0.0000000000000000000, -0.0000000000000000000, 1.000000000000000000 ) ) ;
#201 = AXIS2_PLACEMENT_3D ( 'NONE', #48, #73, #9 ) ;
#202 = VECTOR ( 'NONE', #75, 1000.000000000000000 ) ;
#203 = LINE ( 'NONE', #109, #202 ) ;
#204 = SURFACE_SIDE_STYLE ('',( #120 ) ) ;
ENDSEC;
END-ISO-10303-21;
