ISO-10303-21;
HEADER;
FILE_DESCRIPTION (( 'STEP AP214' ),
    '1' );
FILE_NAME ('155289.STEP',
    '2019-06-26T03:11:13',
    ( 'user' ),
    ( 'Î¢ÈíÖÐ¹ú' ),
    'SwSTEP 2.0',
    'SolidWorks 2016',
    '' );
FILE_SCHEMA (( 'AUTOMOTIVE_DESIGN' ));
ENDSEC;

DATA;
#1 = CARTESIAN_POINT ( 'NONE',  ( -131.1047956651487700, 20.00000000000000000, -4.999999999999987600 ) ) ;
#2 = VECTOR ( 'NONE', #74, 1000.000000000000000 ) ;
#3 = FACE_OUTER_BOUND ( 'NONE', #36, .T. ) ;
#4 = CARTESIAN_POINT ( 'NONE',  ( 4.355204334851265500, 0.0000000000000000000, 4.286263797015675000E-017 ) ) ;
#5 = ORIENTED_EDGE ( 'NONE', *, *, #63, .T. ) ;
#6 = AXIS2_PLACEMENT_3D ( 'NONE', #158, #55, #141 ) ;
#7 = ORIENTED_EDGE ( 'NONE', *, *, #60, .T. ) ;
#8 = LINE ( 'NONE', #66, #65 ) ;
#9 = ADVANCED_BREP_SHAPE_REPRESENTATION ( '155289', ( #169, #15 ), #108 ) ;
#10 = ADVANCED_FACE ( 'NONE', ( #139 ), #101, .F. ) ;
#11 = AXIS2_PLACEMENT_3D ( 'NONE', #172, #75, #145 ) ;
#12 = VERTEX_POINT ( 'NONE', #166 ) ;
#13 = ORIENTED_EDGE ( 'NONE', *, *, #60, .F. ) ;
#14 = CARTESIAN_POINT ( 'NONE',  ( -133.1038895803932300, 20.00000000000000000, -5.000000000000000000 ) ) ;
#15 = AXIS2_PLACEMENT_3D ( 'NONE', #90, #114, #54 ) ;
#16 = PRODUCT ( '155289', '155289', '', ( #89 ) ) ;
#17 = CARTESIAN_POINT ( 'NONE',  ( -131.1047956651487700, 20.00000000000000000, -4.999999999999987600 ) ) ;
#18 = VERTEX_POINT ( 'NONE', #17 ) ;
#19 = ORIENTED_EDGE ( 'NONE', *, *, #30, .T. ) ;
#20 = EDGE_LOOP ( 'NONE', ( #19, #13, #190, #105 ) ) ;
#21 =( NAMED_UNIT ( * ) PLANE_ANGLE_UNIT ( ) SI_UNIT ( $, .RADIAN. ) );
#22 = CARTESIAN_POINT ( 'NONE',  ( -131.1047956651487700, 20.00000000000000000, 5.000000000000000000 ) ) ;
#23 = AXIS2_PLACEMENT_3D ( 'NONE', #38, #103, #71 ) ;
#24 =( LENGTH_UNIT ( ) NAMED_UNIT ( * ) SI_UNIT ( .MILLI., .METRE. ) );
#25 = CARTESIAN_POINT ( 'NONE',  ( -131.1047956651487700, 0.0000000000000000000, -4.999999999999987600 ) ) ;
#26 = EDGE_LOOP ( 'NONE', ( #130, #146, #57, #111 ) ) ;
#27 = ORIENTED_EDGE ( 'NONE', *, *, #160, .F. ) ;
#28 = FACE_OUTER_BOUND ( 'NONE', #26, .T. ) ;
#29 = EDGE_LOOP ( 'NONE', ( #53, #117, #27, #152 ) ) ;
#30 = EDGE_CURVE ( 'NONE', #123, #99, #88, .T. ) ;
#31 = VECTOR ( 'NONE', #84, 1000.000000000000000 ) ;
#32 = PRESENTATION_STYLE_ASSIGNMENT (( #92 ) ) ;
#33 = LINE ( 'NONE', #151, #191 ) ;
#34 = PLANE ( 'NONE',  #11 ) ;
#35 = ORIENTED_EDGE ( 'NONE', *, *, #175, .T. ) ;
#36 = EDGE_LOOP ( 'NONE', ( #35, #112, #178, #110 ) ) ;
#37 = CARTESIAN_POINT ( 'NONE',  ( -131.1047956651487700, 20.00000000000000000, -4.999999999999987600 ) ) ;
#38 = CARTESIAN_POINT ( 'NONE',  ( 4.355204334851265500, 20.00000000000000000, 4.286263797015675000E-017 ) ) ;
#39 = VECTOR ( 'NONE', #182, 1000.000000000000000 ) ;
#40 = FILL_AREA_STYLE ('',( #87 ) ) ;
#41 = AXIS2_PLACEMENT_3D ( 'NONE', #167, #100, #193 ) ;
#42 = FACE_OUTER_BOUND ( 'NONE', #20, .T. ) ;
#43 = FILL_AREA_STYLE_COLOUR ( '', #202 ) ;
#44 = AXIS2_PLACEMENT_3D ( 'NONE', #37, #104, #164 ) ;
#45 = VECTOR ( 'NONE', #93, 1000.000000000000000 ) ;
#46 = ADVANCED_FACE ( 'NONE', ( #165 ), #197, .T. ) ;
#47 = PRESENTATION_LAYER_ASSIGNMENT (  '', '', ( #129 ) ) ;
#48 = PRODUCT_DEFINITION ( 'Î´Öª', '', #125, #150 ) ;
#49 = ADVANCED_FACE ( 'NONE', ( #102 ), #52, .F. ) ;
#50 = LINE ( 'NONE', #128, #2 ) ;
#51 = DIRECTION ( 'NONE',  ( 1.000000000000000000, 0.0000000000000000000, 6.074284074018936100E-015 ) ) ;
#52 = PLANE ( 'NONE',  #44 ) ;
#53 = ORIENTED_EDGE ( 'NONE', *, *, #81, .F. ) ;
#54 = DIRECTION ( 'NONE',  ( 1.000000000000000000, 0.0000000000000000000, 0.0000000000000000000 ) ) ;
#55 = DIRECTION ( 'NONE',  ( 0.0000000000000000000, 1.000000000000000000, 0.0000000000000000000 ) ) ;
#56 = CARTESIAN_POINT ( 'NONE',  ( -131.1047956651487700, 0.0000000000000000000, 5.000000000000000000 ) ) ;
#57 = ORIENTED_EDGE ( 'NONE', *, *, #115, .F. ) ;
#58 = CARTESIAN_POINT ( 'NONE',  ( -133.1038895803932300, 20.00000000000000000, -5.000000000000000000 ) ) ;
#59 = UNCERTAINTY_MEASURE_WITH_UNIT (LENGTH_MEASURE( 1.000000000000000100E-005 ), #91, 'distance_accuracy_value', 'NONE');
#60 = EDGE_CURVE ( 'NONE', #61, #99, #196, .T. ) ;
#61 = VERTEX_POINT ( 'NONE', #132 ) ;
#62 = EDGE_LOOP ( 'NONE', ( #201, #174, #184, #7 ) ) ;
#63 = EDGE_CURVE ( 'NONE', #83, #177, #120, .T. ) ;
#64 = SURFACE_SIDE_STYLE ('',( #156 ) ) ;
#65 = VECTOR ( 'NONE', #159, 1000.000000000000000 ) ;
#66 = CARTESIAN_POINT ( 'NONE',  ( -131.1047956651487700, 20.00000000000000000, -4.999999999999987600 ) ) ;
#67 = VECTOR ( 'NONE', #162, 1000.000000000000000 ) ;
#68 = CARTESIAN_POINT ( 'NONE',  ( -131.1047956651487700, 20.00000000000000000, 5.000000000000000000 ) ) ;
#69 = PRESENTATION_STYLE_ASSIGNMENT (( #85 ) ) ;
#70 = CARTESIAN_POINT ( 'NONE',  ( -133.1038895803932300, 20.00000000000000000, 5.000000000000000000 ) ) ;
#71 = DIRECTION ( 'NONE',  ( 0.0000000000000000000, 0.0000000000000000000, -1.000000000000000000 ) ) ;
#72 = CARTESIAN_POINT ( 'NONE',  ( -133.1038895803932300, 0.0000000000000000000, 5.000000000000000000 ) ) ;
#73 = CARTESIAN_POINT ( 'NONE',  ( -133.1038895803932300, 0.0000000000000000000, -5.000000000000000000 ) ) ;
#74 = DIRECTION ( 'NONE',  ( 1.000000000000000000, 0.0000000000000000000, 0.0000000000000000000 ) ) ;
#75 = DIRECTION ( 'NONE',  ( 0.0000000000000000000, 0.0000000000000000000, -1.000000000000000000 ) ) ;
#76 = FILL_AREA_STYLE ('',( #43 ) ) ;
#77 = LINE ( 'NONE', #171, #67 ) ;
#78 = EDGE_CURVE ( 'NONE', #83, #18, #179, .T. ) ;
#79 = VECTOR ( 'NONE', #86, 1000.000000000000000 ) ;
#80 = VECTOR ( 'NONE', #192, 1000.000000000000000 ) ;
#81 = EDGE_CURVE ( 'NONE', #99, #133, #183, .T. ) ;
#82 = ADVANCED_FACE ( 'NONE', ( #42 ), #188, .F. ) ;
#83 = VERTEX_POINT ( 'NONE', #22 ) ;
#84 = DIRECTION ( 'NONE',  ( -0.0000000000000000000, -1.000000000000000000, -0.0000000000000000000 ) ) ;
#85 = SURFACE_STYLE_USAGE ( .BOTH. , #127 ) ;
#86 = DIRECTION ( 'NONE',  ( -0.0000000000000000000, -1.000000000000000000, -0.0000000000000000000 ) ) ;
#87 = FILL_AREA_STYLE_COLOUR ( '', #186 ) ;
#88 = LINE ( 'NONE', #73, #163 ) ;
#89 = PRODUCT_CONTEXT ( 'NONE', #170, 'mechanical' ) ;
#90 = CARTESIAN_POINT ( 'NONE',  ( 0.0000000000000000000, 0.0000000000000000000, 0.0000000000000000000 ) ) ;
#91 =( LENGTH_UNIT ( ) NAMED_UNIT ( * ) SI_UNIT ( .MILLI., .METRE. ) );
#92 = SURFACE_STYLE_USAGE ( .BOTH. , #64 ) ;
#93 = DIRECTION ( 'NONE',  ( -0.0000000000000000000, -0.0000000000000000000, -1.000000000000000000 ) ) ;
#94 = ORIENTED_EDGE ( 'NONE', *, *, #160, .T. ) ;
#95 = AXIS2_PLACEMENT_3D ( 'NONE', #154, #187, #204 ) ;
#96 = PRESENTATION_LAYER_ASSIGNMENT (  '', '', ( #140 ) ) ;
#97 = APPLICATION_CONTEXT ( 'automotive_design' ) ;
#98 =( NAMED_UNIT ( * ) SI_UNIT ( $, .STERADIAN. ) SOLID_ANGLE_UNIT ( ) );
#99 = VERTEX_POINT ( 'NONE', #118 ) ;
#100 = DIRECTION ( 'NONE',  ( 0.0000000000000000000, 1.000000000000000000, 0.0000000000000000000 ) ) ;
#101 = PLANE ( 'NONE',  #157 ) ;
#102 = FACE_OUTER_BOUND ( 'NONE', #109, .T. ) ;
#103 = DIRECTION ( 'NONE',  ( -0.0000000000000000000, -1.000000000000000000, -0.0000000000000000000 ) ) ;
#104 = DIRECTION ( 'NONE',  ( -1.000000000000000000, 0.0000000000000000000, 0.0000000000000000000 ) ) ;
#105 = ORIENTED_EDGE ( 'NONE', *, *, #155, .T. ) ;
#106 = CLOSED_SHELL ( 'NONE', ( #46, #176, #49, #82, #124, #10 ) ) ;
#107 = APPLICATION_PROTOCOL_DEFINITION ( 'draft international standard', 'automotive_design', 1998, #97 ) ;
#108 =( GEOMETRIC_REPRESENTATION_CONTEXT ( 3 ) GLOBAL_UNCERTAINTY_ASSIGNED_CONTEXT ( ( #181 ) ) GLOBAL_UNIT_ASSIGNED_CONTEXT ( ( #189, #21, #136 ) ) REPRESENTATION_CONTEXT ( 'NONE', 'WORKASPACE' ) );
#109 = EDGE_LOOP ( 'NONE', ( #94, #148, #149, #5 ) ) ;
#110 = ORIENTED_EDGE ( 'NONE', *, *, #138, .T. ) ;
#111 = ORIENTED_EDGE ( 'NONE', *, *, #135, .T. ) ;
#112 = ORIENTED_EDGE ( 'NONE', *, *, #115, .T. ) ;
#113 = UNCERTAINTY_MEASURE_WITH_UNIT (LENGTH_MEASURE( 1.000000000000000100E-005 ), #24, 'distance_accuracy_value', 'NONE');
#114 = DIRECTION ( 'NONE',  ( 0.0000000000000000000, 0.0000000000000000000, 1.000000000000000000 ) ) ;
#115 = EDGE_CURVE ( 'NONE', #12, #83, #33, .T. ) ;
#116 =( NAMED_UNIT ( * ) PLANE_ANGLE_UNIT ( ) SI_UNIT ( $, .RADIAN. ) );
#117 = ORIENTED_EDGE ( 'NONE', *, *, #30, .F. ) ;
#118 = CARTESIAN_POINT ( 'NONE',  ( -133.1038895803932300, 0.0000000000000000000, -5.000000000000000000 ) ) ;
#119 = APPLICATION_PROTOCOL_DEFINITION ( 'draft international standard', 'automotive_design', 1998, #170 ) ;
#120 = LINE ( 'NONE', #68, #79 ) ;
#121 = SHAPE_DEFINITION_REPRESENTATION ( #142, #9 ) ;
#122 =( GEOMETRIC_REPRESENTATION_CONTEXT ( 3 ) GLOBAL_UNCERTAINTY_ASSIGNED_CONTEXT ( ( #59 ) ) GLOBAL_UNIT_ASSIGNED_CONTEXT ( ( #91, #144, #98 ) ) REPRESENTATION_CONTEXT ( 'NONE', 'WORKASPACE' ) );
#123 = VERTEX_POINT ( 'NONE', #25 ) ;
#124 = ADVANCED_FACE ( 'NONE', ( #3 ), #131, .T. ) ;
#125 = PRODUCT_DEFINITION_FORMATION_WITH_SPECIFIED_SOURCE ( 'ÈÎºÎ', '', #16, .NOT_KNOWN. ) ;
#126 = SURFACE_STYLE_FILL_AREA ( #76 ) ;
#127 = SURFACE_SIDE_STYLE ('',( #126 ) ) ;
#128 = CARTESIAN_POINT ( 'NONE',  ( -133.1038895803932300, 0.0000000000000000000, 5.000000000000000000 ) ) ;
#129 = STYLED_ITEM ( 'NONE', ( #69 ), #9 ) ;
#130 = ORIENTED_EDGE ( 'NONE', *, *, #180, .T. ) ;
#131 = PLANE ( 'NONE',  #95 ) ;
#132 = CARTESIAN_POINT ( 'NONE',  ( -133.1038895803932300, 20.00000000000000000, -5.000000000000000000 ) ) ;
#133 = VERTEX_POINT ( 'NONE', #72 ) ;
#134 = DIRECTION ( 'NONE',  ( 1.000000000000000000, 0.0000000000000000000, 0.0000000000000000000 ) ) ;
#135 = EDGE_CURVE ( 'NONE', #12, #133, #161, .T. ) ;
#136 =( NAMED_UNIT ( * ) SI_UNIT ( $, .STERADIAN. ) SOLID_ANGLE_UNIT ( ) );
#137 =( GEOMETRIC_REPRESENTATION_CONTEXT ( 3 ) GLOBAL_UNCERTAINTY_ASSIGNED_CONTEXT ( ( #113 ) ) GLOBAL_UNIT_ASSIGNED_CONTEXT ( ( #24, #116, #203 ) ) REPRESENTATION_CONTEXT ( 'NONE', 'WORKASPACE' ) );
#138 = EDGE_CURVE ( 'NONE', #18, #61, #77, .T. ) ;
#139 = FACE_OUTER_BOUND ( 'NONE', #29, .T. ) ;
#140 = STYLED_ITEM ( 'NONE', ( #32 ), #169 ) ;
#141 = DIRECTION ( 'NONE',  ( 0.0000000000000000000, 0.0000000000000000000, 1.000000000000000000 ) ) ;
#142 = PRODUCT_DEFINITION_SHAPE ( 'NONE', 'NONE',  #48 ) ;
#143 = PRODUCT_RELATED_PRODUCT_CATEGORY ( 'part', '', ( #16 ) ) ;
#144 =( NAMED_UNIT ( * ) PLANE_ANGLE_UNIT ( ) SI_UNIT ( $, .RADIAN. ) );
#145 = DIRECTION ( 'NONE',  ( -1.000000000000000000, 0.0000000000000000000, -0.0000000000000000000 ) ) ;
#146 = ORIENTED_EDGE ( 'NONE', *, *, #63, .F. ) ;
#147 = DIRECTION ( 'NONE',  ( 0.0000000000000000000, -0.0000000000000000000, 1.000000000000000000 ) ) ;
#148 = ORIENTED_EDGE ( 'NONE', *, *, #155, .F. ) ;
#149 = ORIENTED_EDGE ( 'NONE', *, *, #78, .F. ) ;
#150 = PRODUCT_DEFINITION_CONTEXT ( 'detailed design', #97, 'design' ) ;
#151 = CARTESIAN_POINT ( 'NONE',  ( -133.1038895803932300, 20.00000000000000000, 5.000000000000000000 ) ) ;
#152 = ORIENTED_EDGE ( 'NONE', *, *, #180, .F. ) ;
#153 = DIRECTION ( 'NONE',  ( -1.000000000000000000, -0.0000000000000000000, -6.074284074018936100E-015 ) ) ;
#154 = CARTESIAN_POINT ( 'NONE',  ( 4.355204334851265500, 20.00000000000000000, 4.286263797015675000E-017 ) ) ;
#155 = EDGE_CURVE ( 'NONE', #18, #123, #8, .T. ) ;
#156 = SURFACE_STYLE_FILL_AREA ( #40 ) ;
#157 = AXIS2_PLACEMENT_3D ( 'NONE', #4, #168, #147 ) ;
#158 = CARTESIAN_POINT ( 'NONE',  ( 4.355204334851265500, 20.00000000000000000, 4.286263797015675000E-017 ) ) ;
#159 = DIRECTION ( 'NONE',  ( -0.0000000000000000000, -1.000000000000000000, -0.0000000000000000000 ) ) ;
#160 = EDGE_CURVE ( 'NONE', #177, #123, #195, .T. ) ;
#161 = LINE ( 'NONE', #70, #31 ) ;
#162 = DIRECTION ( 'NONE',  ( -1.000000000000000000, -0.0000000000000000000, -6.074284074018936100E-015 ) ) ;
#163 = VECTOR ( 'NONE', #153, 1000.000000000000000 ) ;
#164 = DIRECTION ( 'NONE',  ( 0.0000000000000000000, 0.0000000000000000000, 1.000000000000000000 ) ) ;
#165 = FACE_OUTER_BOUND ( 'NONE', #62, .T. ) ;
#166 = CARTESIAN_POINT ( 'NONE',  ( -133.1038895803932300, 20.00000000000000000, 5.000000000000000000 ) ) ;
#167 = CARTESIAN_POINT ( 'NONE',  ( 4.355204334851265500, 0.0000000000000000000, 4.286263797015675000E-017 ) ) ;
#168 = DIRECTION ( 'NONE',  ( 0.0000000000000000000, 1.000000000000000000, 0.0000000000000000000 ) ) ;
#169 = MANIFOLD_SOLID_BREP ( 'Í¹Ì¨-À­Éì1', #106 ) ;
#170 = APPLICATION_CONTEXT ( 'automotive_design' ) ;
#171 = CARTESIAN_POINT ( 'NONE',  ( -133.1038895803932300, 20.00000000000000000, -5.000000000000000000 ) ) ;
#172 = CARTESIAN_POINT ( 'NONE',  ( -133.1038895803932300, 20.00000000000000000, 5.000000000000000000 ) ) ;
#173 = CIRCLE ( 'NONE', #6, 137.5500000000000400 ) ;
#174 = ORIENTED_EDGE ( 'NONE', *, *, #135, .F. ) ;
#175 = EDGE_CURVE ( 'NONE', #61, #12, #173, .T. ) ;
#176 = ADVANCED_FACE ( 'NONE', ( #28 ), #34, .F. ) ;
#177 = VERTEX_POINT ( 'NONE', #56 ) ;
#178 = ORIENTED_EDGE ( 'NONE', *, *, #78, .T. ) ;
#179 = LINE ( 'NONE', #1, #45 ) ;
#180 = EDGE_CURVE ( 'NONE', #133, #177, #50, .T. ) ;
#181 = UNCERTAINTY_MEASURE_WITH_UNIT (LENGTH_MEASURE( 1.000000000000000100E-005 ), #189, 'distance_accuracy_value', 'NONE');
#182 = DIRECTION ( 'NONE',  ( -0.0000000000000000000, -0.0000000000000000000, -1.000000000000000000 ) ) ;
#183 = CIRCLE ( 'NONE', #41, 137.5500000000000400 ) ;
#184 = ORIENTED_EDGE ( 'NONE', *, *, #175, .F. ) ;
#185 = DIRECTION ( 'NONE',  ( -6.074284074018936100E-015, 0.0000000000000000000, 1.000000000000000000 ) ) ;
#186 = COLOUR_RGB ( '',1.000000000000000000, 1.000000000000000000, 1.000000000000000000 ) ;
#187 = DIRECTION ( 'NONE',  ( 0.0000000000000000000, 1.000000000000000000, 0.0000000000000000000 ) ) ;
#188 = PLANE ( 'NONE',  #194 ) ;
#189 =( LENGTH_UNIT ( ) NAMED_UNIT ( * ) SI_UNIT ( .MILLI., .METRE. ) );
#190 = ORIENTED_EDGE ( 'NONE', *, *, #138, .F. ) ;
#191 = VECTOR ( 'NONE', #134, 1000.000000000000000 ) ;
#192 = DIRECTION ( 'NONE',  ( -0.0000000000000000000, -1.000000000000000000, -0.0000000000000000000 ) ) ;
#193 = DIRECTION ( 'NONE',  ( 0.0000000000000000000, 0.0000000000000000000, 1.000000000000000000 ) ) ;
#194 = AXIS2_PLACEMENT_3D ( 'NONE', #14, #185, #51 ) ;
#195 = LINE ( 'NONE', #200, #39 ) ;
#196 = LINE ( 'NONE', #58, #80 ) ;
#197 = CYLINDRICAL_SURFACE ( 'NONE', #23, 137.5500000000000400 ) ;
#198 = MECHANICAL_DESIGN_GEOMETRIC_PRESENTATION_REPRESENTATION (  '', ( #129 ), #137 ) ;
#199 = MECHANICAL_DESIGN_GEOMETRIC_PRESENTATION_REPRESENTATION (  '', ( #140 ), #122 ) ;
#200 = CARTESIAN_POINT ( 'NONE',  ( -131.1047956651487700, 0.0000000000000000000, -4.999999999999987600 ) ) ;
#201 = ORIENTED_EDGE ( 'NONE', *, *, #81, .T. ) ;
#202 = COLOUR_RGB ( '',1.000000000000000000, 1.000000000000000000, 1.000000000000000000 ) ;
#203 =( NAMED_UNIT ( * ) SI_UNIT ( $, .STERADIAN. ) SOLID_ANGLE_UNIT ( ) );
#204 = DIRECTION ( 'NONE',  ( 0.0000000000000000000, -0.0000000000000000000, 1.000000000000000000 ) ) ;
ENDSEC;
END-ISO-10303-21;
