ISO-10303-21;
HEADER;
FILE_DESCRIPTION (( 'STEP AP214' ),
    '1' );
FILE_NAME ('155267.STEP',
    '2019-06-25T03:08:02',
    ( 'user' ),
    ( 'Î¢ÈíÖÐ¹ú' ),
    'SwSTEP 2.0',
    'SolidWorks 2016',
    '' );
FILE_SCHEMA (( 'AUTOMOTIVE_DESIGN' ));
ENDSEC;

DATA;
#1 =( NAMED_UNIT ( * ) SI_UNIT ( $, .STERADIAN. ) SOLID_ANGLE_UNIT ( ) );
#2 = CARTESIAN_POINT ( 'NONE',  ( -13.26927863628862900, 10.00000000000000000, -5.000000000000000000 ) ) ;
#3 = CARTESIAN_POINT ( 'NONE',  ( 0.0000000000000000000, 0.0000000000000000000, 0.0000000000000000000 ) ) ;
#4 = DIRECTION ( 'NONE',  ( -1.000000000000000000, 0.0000000000000000000, -0.0000000000000000000 ) ) ;
#5 = FACE_OUTER_BOUND ( 'NONE', #85, .T. ) ;
#6 = DIRECTION ( 'NONE',  ( -3.469446951953614700E-016, -0.0000000000000000000, -1.000000000000000000 ) ) ;
#7 = ORIENTED_EDGE ( 'NONE', *, *, #189, .T. ) ;
#8 = COLOUR_RGB ( '',1.000000000000000000, 1.000000000000000000, 1.000000000000000000 ) ;
#9 = CARTESIAN_POINT ( 'NONE',  ( -13.26927863628862900, 10.00000000000000000, 5.000000000000000000 ) ) ;
#10 = ORIENTED_EDGE ( 'NONE', *, *, #109, .T. ) ;
#11 = SURFACE_STYLE_USAGE ( .BOTH. , #17 ) ;
#12 = VECTOR ( 'NONE', #157, 1000.000000000000000 ) ;
#13 = LINE ( 'NONE', #9, #54 ) ;
#14 = CARTESIAN_POINT ( 'NONE',  ( 4.355204334851265500, 0.0000000000000000000, 4.286263797015675000E-017 ) ) ;
#15 = ADVANCED_FACE ( 'NONE', ( #91 ), #153, .F. ) ;
#16 = SURFACE_STYLE_FILL_AREA ( #174 ) ;
#17 = SURFACE_SIDE_STYLE ('',( #105 ) ) ;
#18 = CARTESIAN_POINT ( 'NONE',  ( -11.26479566514873600, 10.00000000000000000, -4.999999999999998200 ) ) ;
#19 = EDGE_CURVE ( 'NONE', #162, #164, #187, .T. ) ;
#20 = STYLED_ITEM ( 'NONE', ( #173 ), #44 ) ;
#21 = VERTEX_POINT ( 'NONE', #155 ) ;
#22 = VECTOR ( 'NONE', #131, 1000.000000000000000 ) ;
#23 =( LENGTH_UNIT ( ) NAMED_UNIT ( * ) SI_UNIT ( .MILLI., .METRE. ) );
#24 = ORIENTED_EDGE ( 'NONE', *, *, #37, .T. ) ;
#25 = DIRECTION ( 'NONE',  ( 0.0000000000000000000, 0.0000000000000000000, 1.000000000000000000 ) ) ;
#26 = ORIENTED_EDGE ( 'NONE', *, *, #202, .T. ) ;
#27 = DIRECTION ( 'NONE',  ( 3.469446951953615200E-016, 0.0000000000000000000, 1.000000000000000000 ) ) ;
#28 = DIRECTION ( 'NONE',  ( -0.0000000000000000000, -1.000000000000000000, -0.0000000000000000000 ) ) ;
#29 = PRESENTATION_LAYER_ASSIGNMENT (  '', '', ( #20 ) ) ;
#30 = LINE ( 'NONE', #64, #111 ) ;
#31 = FILL_AREA_STYLE_COLOUR ( '', #8 ) ;
#32 = FILL_AREA_STYLE_COLOUR ( '', #58 ) ;
#33 = CARTESIAN_POINT ( 'NONE',  ( -11.26479566514873600, 10.00000000000000000, -4.999999999999998200 ) ) ;
#34 = EDGE_LOOP ( 'NONE', ( #50, #53, #119, #26 ) ) ;
#35 = DIRECTION ( 'NONE',  ( 0.0000000000000000000, 0.0000000000000000000, 1.000000000000000000 ) ) ;
#36 = UNCERTAINTY_MEASURE_WITH_UNIT (LENGTH_MEASURE( 1.000000000000000100E-005 ), #147, 'distance_accuracy_value', 'NONE');
#37 = EDGE_CURVE ( 'NONE', #21, #63, #30, .T. ) ;
#38 =( GEOMETRIC_REPRESENTATION_CONTEXT ( 3 ) GLOBAL_UNCERTAINTY_ASSIGNED_CONTEXT ( ( #36 ) ) GLOBAL_UNIT_ASSIGNED_CONTEXT ( ( #147, #113, #59 ) ) REPRESENTATION_CONTEXT ( 'NONE', 'WORKASPACE' ) );
#39 = CARTESIAN_POINT ( 'NONE',  ( 4.355204334851265500, 10.00000000000000000, 4.286263797015675000E-017 ) ) ;
#40 = ORIENTED_EDGE ( 'NONE', *, *, #69, .F. ) ;
#41 = DIRECTION ( 'NONE',  ( 0.0000000000000000000, 0.0000000000000000000, -1.000000000000000000 ) ) ;
#42 = ORIENTED_EDGE ( 'NONE', *, *, #166, .F. ) ;
#43 = FACE_OUTER_BOUND ( 'NONE', #183, .T. ) ;
#44 = ADVANCED_BREP_SHAPE_REPRESENTATION ( '155267', ( #154, #127 ), #88 ) ;
#45 = CARTESIAN_POINT ( 'NONE',  ( -13.26927863628862900, 0.0000000000000000000, -5.000000000000000000 ) ) ;
#46 = LINE ( 'NONE', #199, #72 ) ;
#47 = EDGE_CURVE ( 'NONE', #191, #142, #148, .T. ) ;
#48 = CARTESIAN_POINT ( 'NONE',  ( 4.355204334851265500, 10.00000000000000000, 4.286263797015675000E-017 ) ) ;
#49 = VECTOR ( 'NONE', #28, 1000.000000000000000 ) ;
#50 = ORIENTED_EDGE ( 'NONE', *, *, #55, .T. ) ;
#51 = VECTOR ( 'NONE', #6, 1000.000000000000000 ) ;
#52 = EDGE_CURVE ( 'NONE', #63, #191, #145, .T. ) ;
#53 = ORIENTED_EDGE ( 'NONE', *, *, #189, .F. ) ;
#54 = VECTOR ( 'NONE', #75, 1000.000000000000000 ) ;
#55 = EDGE_CURVE ( 'NONE', #132, #136, #46, .T. ) ;
#56 = CARTESIAN_POINT ( 'NONE',  ( -11.26479566514873200, 0.0000000000000000000, 5.000000000000000000 ) ) ;
#57 = ORIENTED_EDGE ( 'NONE', *, *, #47, .T. ) ;
#58 = COLOUR_RGB ( '',1.000000000000000000, 1.000000000000000000, 1.000000000000000000 ) ;
#59 =( NAMED_UNIT ( * ) SI_UNIT ( $, .STERADIAN. ) SOLID_ANGLE_UNIT ( ) );
#60 = VECTOR ( 'NONE', #114, 1000.000000000000000 ) ;
#61 = AXIS2_PLACEMENT_3D ( 'NONE', #18, #149, #27 ) ;
#62 = DIRECTION ( 'NONE',  ( -1.000000000000000000, -0.0000000000000000000, -8.654219072713394200E-016 ) ) ;
#63 = VERTEX_POINT ( 'NONE', #33 ) ;
#64 = CARTESIAN_POINT ( 'NONE',  ( -11.26479566514873600, 10.00000000000000000, -4.999999999999998200 ) ) ;
#65 = ADVANCED_FACE ( 'NONE', ( #101 ), #167, .F. ) ;
#66 = UNCERTAINTY_MEASURE_WITH_UNIT (LENGTH_MEASURE( 1.000000000000000100E-005 ), #23, 'distance_accuracy_value', 'NONE');
#67 = EDGE_LOOP ( 'NONE', ( #152, #163, #129, #115 ) ) ;
#68 = PRODUCT_CONTEXT ( 'NONE', #143, 'mechanical' ) ;
#69 = EDGE_CURVE ( 'NONE', #164, #132, #95, .T. ) ;
#70 = AXIS2_PLACEMENT_3D ( 'NONE', #140, #41, #4 ) ;
#71 = AXIS2_PLACEMENT_3D ( 'NONE', #48, #79, #83 ) ;
#72 = VECTOR ( 'NONE', #186, 1000.000000000000000 ) ;
#73 = EDGE_CURVE ( 'NONE', #191, #164, #108, .T. ) ;
#74 = CARTESIAN_POINT ( 'NONE',  ( -13.26927863628862900, 10.00000000000000000, 5.000000000000000000 ) ) ;
#75 = DIRECTION ( 'NONE',  ( 1.000000000000000000, 0.0000000000000000000, 0.0000000000000000000 ) ) ;
#76 = CARTESIAN_POINT ( 'NONE',  ( -13.26927863628862900, 10.00000000000000000, 5.000000000000000000 ) ) ;
#77 = ORIENTED_EDGE ( 'NONE', *, *, #146, .F. ) ;
#78 =( NAMED_UNIT ( * ) PLANE_ANGLE_UNIT ( ) SI_UNIT ( $, .RADIAN. ) );
#79 = DIRECTION ( 'NONE',  ( 0.0000000000000000000, 1.000000000000000000, 0.0000000000000000000 ) ) ;
#80 =( LENGTH_UNIT ( ) NAMED_UNIT ( * ) SI_UNIT ( .MILLI., .METRE. ) );
#81 = ADVANCED_FACE ( 'NONE', ( #123 ), #96, .F. ) ;
#82 = CARTESIAN_POINT ( 'NONE',  ( -11.26479566514873200, 10.00000000000000000, 5.000000000000000000 ) ) ;
#83 = DIRECTION ( 'NONE',  ( 0.0000000000000000000, 0.0000000000000000000, 1.000000000000000000 ) ) ;
#84 = DIRECTION ( 'NONE',  ( -8.654219072713394200E-016, 0.0000000000000000000, 1.000000000000000000 ) ) ;
#85 = EDGE_LOOP ( 'NONE', ( #57, #10, #24, #195 ) ) ;
#86 = CYLINDRICAL_SURFACE ( 'NONE', #102, 18.32000000000000400 ) ;
#87 =( NAMED_UNIT ( * ) SI_UNIT ( $, .STERADIAN. ) SOLID_ANGLE_UNIT ( ) );
#88 =( GEOMETRIC_REPRESENTATION_CONTEXT ( 3 ) GLOBAL_UNCERTAINTY_ASSIGNED_CONTEXT ( ( #66 ) ) GLOBAL_UNIT_ASSIGNED_CONTEXT ( ( #23, #78, #87 ) ) REPRESENTATION_CONTEXT ( 'NONE', 'WORKASPACE' ) );
#89 = APPLICATION_CONTEXT ( 'automotive_design' ) ;
#90 = DIRECTION ( 'NONE',  ( 0.0000000000000000000, 1.000000000000000000, 0.0000000000000000000 ) ) ;
#91 = FACE_OUTER_BOUND ( 'NONE', #179, .T. ) ;
#92 = VECTOR ( 'NONE', #193, 1000.000000000000000 ) ;
#93 = PRODUCT_DEFINITION_FORMATION_WITH_SPECIFIED_SOURCE ( 'ÈÎºÎ', '', #204, .NOT_KNOWN. ) ;
#94 = DIRECTION ( 'NONE',  ( 0.0000000000000000000, 1.000000000000000000, 0.0000000000000000000 ) ) ;
#95 = CIRCLE ( 'NONE', #160, 18.32000000000000400 ) ;
#96 = PLANE ( 'NONE',  #61 ) ;
#97 = CARTESIAN_POINT ( 'NONE',  ( -13.26927863628862900, 0.0000000000000000000, 5.000000000000000000 ) ) ;
#98 = CARTESIAN_POINT ( 'NONE',  ( -11.26479566514873600, 0.0000000000000000000, -4.999999999999998200 ) ) ;
#99 = SURFACE_STYLE_USAGE ( .BOTH. , #161 ) ;
#100 = DIRECTION ( 'NONE',  ( -0.0000000000000000000, -1.000000000000000000, -0.0000000000000000000 ) ) ;
#101 = FACE_OUTER_BOUND ( 'NONE', #34, .T. ) ;
#102 = AXIS2_PLACEMENT_3D ( 'NONE', #112, #100, #151 ) ;
#103 = MECHANICAL_DESIGN_GEOMETRIC_PRESENTATION_REPRESENTATION (  '', ( #171 ), #38 ) ;
#104 = ORIENTED_EDGE ( 'NONE', *, *, #19, .F. ) ;
#105 = SURFACE_STYLE_FILL_AREA ( #126 ) ;
#106 =( NAMED_UNIT ( * ) PLANE_ANGLE_UNIT ( ) SI_UNIT ( $, .RADIAN. ) );
#107 = CARTESIAN_POINT ( 'NONE',  ( -13.26927863628862900, 10.00000000000000000, -5.000000000000000000 ) ) ;
#108 = LINE ( 'NONE', #137, #12 ) ;
#109 = EDGE_CURVE ( 'NONE', #142, #21, #13, .T. ) ;
#110 = PRODUCT_RELATED_PRODUCT_CATEGORY ( 'part', '', ( #204 ) ) ;
#111 = VECTOR ( 'NONE', #122, 1000.000000000000000 ) ;
#112 = CARTESIAN_POINT ( 'NONE',  ( 4.355204334851265500, 10.00000000000000000, 4.286263797015675000E-017 ) ) ;
#113 =( NAMED_UNIT ( * ) PLANE_ANGLE_UNIT ( ) SI_UNIT ( $, .RADIAN. ) );
#114 = DIRECTION ( 'NONE',  ( -1.000000000000000000, -0.0000000000000000000, -8.654219072713394200E-016 ) ) ;
#115 = ORIENTED_EDGE ( 'NONE', *, *, #166, .T. ) ;
#116 = MECHANICAL_DESIGN_GEOMETRIC_PRESENTATION_REPRESENTATION (  '', ( #20 ), #177 ) ;
#117 = AXIS2_PLACEMENT_3D ( 'NONE', #2, #84, #118 ) ;
#118 = DIRECTION ( 'NONE',  ( 1.000000000000000000, 0.0000000000000000000, 8.654219072713394200E-016 ) ) ;
#119 = ORIENTED_EDGE ( 'NONE', *, *, #109, .F. ) ;
#120 = UNCERTAINTY_MEASURE_WITH_UNIT (LENGTH_MEASURE( 1.000000000000000100E-005 ), #80, 'distance_accuracy_value', 'NONE');
#121 = CARTESIAN_POINT ( 'NONE',  ( -13.26927863628862900, 0.0000000000000000000, -5.000000000000000000 ) ) ;
#122 = DIRECTION ( 'NONE',  ( -3.469446951953614700E-016, -0.0000000000000000000, -1.000000000000000000 ) ) ;
#123 = FACE_OUTER_BOUND ( 'NONE', #184, .T. ) ;
#124 = ADVANCED_FACE ( 'NONE', ( #133 ), #134, .F. ) ;
#125 = ORIENTED_EDGE ( 'NONE', *, *, #73, .T. ) ;
#126 = FILL_AREA_STYLE ('',( #31 ) ) ;
#127 = AXIS2_PLACEMENT_3D ( 'NONE', #3, #35, #159 ) ;
#128 = AXIS2_PLACEMENT_3D ( 'NONE', #14, #90, #169 ) ;
#129 = ORIENTED_EDGE ( 'NONE', *, *, #52, .F. ) ;
#130 = ORIENTED_EDGE ( 'NONE', *, *, #55, .F. ) ;
#131 = DIRECTION ( 'NONE',  ( -0.0000000000000000000, -1.000000000000000000, -0.0000000000000000000 ) ) ;
#132 = VERTEX_POINT ( 'NONE', #97 ) ;
#133 = FACE_OUTER_BOUND ( 'NONE', #67, .T. ) ;
#134 = PLANE ( 'NONE',  #117 ) ;
#135 = CARTESIAN_POINT ( 'NONE',  ( -11.26479566514873600, 0.0000000000000000000, -4.999999999999998200 ) ) ;
#136 = VERTEX_POINT ( 'NONE', #56 ) ;
#137 = CARTESIAN_POINT ( 'NONE',  ( -13.26927863628862900, 10.00000000000000000, -5.000000000000000000 ) ) ;
#138 = VECTOR ( 'NONE', #62, 1000.000000000000000 ) ;
#139 = PRESENTATION_STYLE_ASSIGNMENT (( #11 ) ) ;
#140 = CARTESIAN_POINT ( 'NONE',  ( -13.26927863628862900, 10.00000000000000000, 5.000000000000000000 ) ) ;
#141 = ADVANCED_FACE ( 'NONE', ( #5 ), #178, .T. ) ;
#142 = VERTEX_POINT ( 'NONE', #74 ) ;
#143 = APPLICATION_CONTEXT ( 'automotive_design' ) ;
#144 = PRODUCT_DEFINITION_CONTEXT ( 'detailed design', #89, 'design' ) ;
#145 = LINE ( 'NONE', #197, #60 ) ;
#146 = EDGE_CURVE ( 'NONE', #136, #162, #165, .T. ) ;
#147 =( LENGTH_UNIT ( ) NAMED_UNIT ( * ) SI_UNIT ( .MILLI., .METRE. ) );
#148 = CIRCLE ( 'NONE', #71, 18.32000000000000400 ) ;
#149 = DIRECTION ( 'NONE',  ( -1.000000000000000000, 0.0000000000000000000, 3.469446951953615200E-016 ) ) ;
#150 = CARTESIAN_POINT ( 'NONE',  ( 4.355204334851265500, 0.0000000000000000000, 4.286263797015675000E-017 ) ) ;
#151 = DIRECTION ( 'NONE',  ( 0.0000000000000000000, 0.0000000000000000000, -1.000000000000000000 ) ) ;
#152 = ORIENTED_EDGE ( 'NONE', *, *, #19, .T. ) ;
#153 = PLANE ( 'NONE',  #128 ) ;
#154 = MANIFOLD_SOLID_BREP ( 'Í¹Ì¨-À­Éì1', #168 ) ;
#155 = CARTESIAN_POINT ( 'NONE',  ( -11.26479566514873200, 10.00000000000000000, 5.000000000000000000 ) ) ;
#156 = SHAPE_DEFINITION_REPRESENTATION ( #194, #44 ) ;
#157 = DIRECTION ( 'NONE',  ( -0.0000000000000000000, -1.000000000000000000, -0.0000000000000000000 ) ) ;
#158 = ORIENTED_EDGE ( 'NONE', *, *, #37, .F. ) ;
#159 = DIRECTION ( 'NONE',  ( 1.000000000000000000, 0.0000000000000000000, 0.0000000000000000000 ) ) ;
#160 = AXIS2_PLACEMENT_3D ( 'NONE', #150, #185, #25 ) ;
#161 = SURFACE_SIDE_STYLE ('',( #16 ) ) ;
#162 = VERTEX_POINT ( 'NONE', #98 ) ;
#163 = ORIENTED_EDGE ( 'NONE', *, *, #73, .F. ) ;
#164 = VERTEX_POINT ( 'NONE', #121 ) ;
#165 = LINE ( 'NONE', #135, #51 ) ;
#166 = EDGE_CURVE ( 'NONE', #63, #162, #192, .T. ) ;
#167 = PLANE ( 'NONE',  #70 ) ;
#168 = CLOSED_SHELL ( 'NONE', ( #198, #65, #81, #124, #141, #15 ) ) ;
#169 = DIRECTION ( 'NONE',  ( 0.0000000000000000000, -0.0000000000000000000, 1.000000000000000000 ) ) ;
#170 = ORIENTED_EDGE ( 'NONE', *, *, #146, .T. ) ;
#171 = STYLED_ITEM ( 'NONE', ( #139 ), #154 ) ;
#172 = ORIENTED_EDGE ( 'NONE', *, *, #202, .F. ) ;
#173 = PRESENTATION_STYLE_ASSIGNMENT (( #99 ) ) ;
#174 = FILL_AREA_STYLE ('',( #32 ) ) ;
#175 = DIRECTION ( 'NONE',  ( 0.0000000000000000000, -0.0000000000000000000, 1.000000000000000000 ) ) ;
#176 = ORIENTED_EDGE ( 'NONE', *, *, #47, .F. ) ;
#177 =( GEOMETRIC_REPRESENTATION_CONTEXT ( 3 ) GLOBAL_UNCERTAINTY_ASSIGNED_CONTEXT ( ( #120 ) ) GLOBAL_UNIT_ASSIGNED_CONTEXT ( ( #80, #106, #1 ) ) REPRESENTATION_CONTEXT ( 'NONE', 'WORKASPACE' ) );
#178 = PLANE ( 'NONE',  #201 ) ;
#179 = EDGE_LOOP ( 'NONE', ( #40, #104, #77, #130 ) ) ;
#180 = LINE ( 'NONE', #82, #22 ) ;
#181 = CARTESIAN_POINT ( 'NONE',  ( -11.26479566514873600, 10.00000000000000000, -4.999999999999998200 ) ) ;
#182 = APPLICATION_PROTOCOL_DEFINITION ( 'draft international standard', 'automotive_design', 1998, #143 ) ;
#183 = EDGE_LOOP ( 'NONE', ( #203, #172, #176, #125 ) ) ;
#184 = EDGE_LOOP ( 'NONE', ( #170, #42, #158, #7 ) ) ;
#185 = DIRECTION ( 'NONE',  ( 0.0000000000000000000, 1.000000000000000000, 0.0000000000000000000 ) ) ;
#186 = DIRECTION ( 'NONE',  ( 1.000000000000000000, 0.0000000000000000000, 0.0000000000000000000 ) ) ;
#187 = LINE ( 'NONE', #45, #138 ) ;
#188 = APPLICATION_PROTOCOL_DEFINITION ( 'draft international standard', 'automotive_design', 1998, #89 ) ;
#189 = EDGE_CURVE ( 'NONE', #21, #136, #180, .T. ) ;
#190 = PRESENTATION_LAYER_ASSIGNMENT (  '', '', ( #171 ) ) ;
#191 = VERTEX_POINT ( 'NONE', #107 ) ;
#192 = LINE ( 'NONE', #181, #92 ) ;
#193 = DIRECTION ( 'NONE',  ( -0.0000000000000000000, -1.000000000000000000, -0.0000000000000000000 ) ) ;
#194 = PRODUCT_DEFINITION_SHAPE ( 'NONE', 'NONE',  #196 ) ;
#195 = ORIENTED_EDGE ( 'NONE', *, *, #52, .T. ) ;
#196 = PRODUCT_DEFINITION ( 'Î´Öª', '', #93, #144 ) ;
#197 = CARTESIAN_POINT ( 'NONE',  ( -13.26927863628862900, 10.00000000000000000, -5.000000000000000000 ) ) ;
#198 = ADVANCED_FACE ( 'NONE', ( #43 ), #86, .T. ) ;
#199 = CARTESIAN_POINT ( 'NONE',  ( -13.26927863628862900, 0.0000000000000000000, 5.000000000000000000 ) ) ;
#200 = LINE ( 'NONE', #76, #49 ) ;
#201 = AXIS2_PLACEMENT_3D ( 'NONE', #39, #94, #175 ) ;
#202 = EDGE_CURVE ( 'NONE', #142, #132, #200, .T. ) ;
#203 = ORIENTED_EDGE ( 'NONE', *, *, #69, .T. ) ;
#204 = PRODUCT ( '155267', '155267', '', ( #68 ) ) ;
ENDSEC;
END-ISO-10303-21;
