ISO-10303-21;
HEADER;
FILE_DESCRIPTION (( 'STEP AP214' ),
    '1' );
FILE_NAME ('155283.STEP',
    '2019-06-26T02:11:00',
    ( 'user' ),
    ( 'Î¢ÈíÖÐ¹ú' ),
    'SwSTEP 2.0',
    'SolidWorks 2016',
    '' );
FILE_SCHEMA (( 'AUTOMOTIVE_DESIGN' ));
ENDSEC;

DATA;
#1 = VERTEX_POINT ( 'NONE', #112 ) ;
#2 = FACE_OUTER_BOUND ( 'NONE', #41, .T. ) ;
#3 = EDGE_CURVE ( 'NONE', #157, #95, #40, .T. ) ;
#4 = EDGE_CURVE ( 'NONE', #105, #16, #96, .T. ) ;
#5 = MECHANICAL_DESIGN_GEOMETRIC_PRESENTATION_REPRESENTATION (  '', ( #195 ), #52 ) ;
#6 = DIRECTION ( 'NONE',  ( 8.682399148458433600E-016, -0.0000000000000000000, 1.000000000000000000 ) ) ;
#7 = SURFACE_STYLE_USAGE ( .BOTH. , #90 ) ;
#8 = DIRECTION ( 'NONE',  ( 0.0000000000000000000, 0.0000000000000000000, 1.000000000000000000 ) ) ;
#9 = EDGE_CURVE ( 'NONE', #95, #105, #92, .T. ) ;
#10 = CARTESIAN_POINT ( 'NONE',  ( -18.01277277529439400, 20.00000000000000000, 5.000000000000000000 ) ) ;
#11 = FILL_AREA_STYLE_COLOUR ( '', #106 ) ;
#12 = VECTOR ( 'NONE', #83, 1000.000000000000000 ) ;
#13 = VERTEX_POINT ( 'NONE', #168 ) ;
#14 = PRODUCT_RELATED_PRODUCT_CATEGORY ( 'part', '', ( #75 ) ) ;
#15 = ADVANCED_FACE ( 'NONE', ( #134 ), #48, .F. ) ;
#16 = VERTEX_POINT ( 'NONE', #25 ) ;
#17 = LINE ( 'NONE', #82, #12 ) ;
#18 = DIRECTION ( 'NONE',  ( -1.000000000000000000, -0.0000000000000000000, 8.682399148458433600E-016 ) ) ;
#19 = CARTESIAN_POINT ( 'NONE',  ( -18.01277277529439400, 20.00000000000000000, 5.000000000000000000 ) ) ;
#20 = FILL_AREA_STYLE ('',( #197 ) ) ;
#21 = CARTESIAN_POINT ( 'NONE',  ( -16.01479566514873900, 20.00000000000000000, -5.000000000000001800 ) ) ;
#22 = CARTESIAN_POINT ( 'NONE',  ( -16.01479566514873900, 0.0000000000000000000, -5.000000000000001800 ) ) ;
#23 = UNCERTAINTY_MEASURE_WITH_UNIT (LENGTH_MEASURE( 1.000000000000000100E-005 ), #146, 'distance_accuracy_value', 'NONE');
#24 =( LENGTH_UNIT ( ) NAMED_UNIT ( * ) SI_UNIT ( .MILLI., .METRE. ) );
#25 = CARTESIAN_POINT ( 'NONE',  ( -18.01277277529439400, 0.0000000000000000000, 5.000000000000000000 ) ) ;
#26 = EDGE_LOOP ( 'NONE', ( #202, #133, #73, #154 ) ) ;
#27 = VECTOR ( 'NONE', #164, 1000.000000000000000 ) ;
#28 = ORIENTED_EDGE ( 'NONE', *, *, #31, .T. ) ;
#29 = EDGE_CURVE ( 'NONE', #187, #13, #74, .T. ) ;
#30 = AXIS2_PLACEMENT_3D ( 'NONE', #71, #181, #107 ) ;
#31 = EDGE_CURVE ( 'NONE', #187, #16, #54, .T. ) ;
#32 = ORIENTED_EDGE ( 'NONE', *, *, #126, .F. ) ;
#33 = PLANE ( 'NONE',  #42 ) ;
#34 = DIRECTION ( 'NONE',  ( 1.000000000000000000, 0.0000000000000000000, -8.682399148458433600E-016 ) ) ;
#35 = EDGE_CURVE ( 'NONE', #50, #105, #127, .T. ) ;
#36 =( NAMED_UNIT ( * ) PLANE_ANGLE_UNIT ( ) SI_UNIT ( $, .RADIAN. ) );
#37 = CARTESIAN_POINT ( 'NONE',  ( -18.01277277529439400, 20.00000000000000000, 5.000000000000000000 ) ) ;
#38 = UNCERTAINTY_MEASURE_WITH_UNIT (LENGTH_MEASURE( 1.000000000000000100E-005 ), #24, 'distance_accuracy_value', 'NONE');
#39 = MECHANICAL_DESIGN_GEOMETRIC_PRESENTATION_REPRESENTATION (  '', ( #136 ), #190 ) ;
#40 = LINE ( 'NONE', #101, #161 ) ;
#41 = EDGE_LOOP ( 'NONE', ( #125, #172, #51, #72 ) ) ;
#42 = AXIS2_PLACEMENT_3D ( 'NONE', #19, #114, #140 ) ;
#43 = ADVANCED_FACE ( 'NONE', ( #124 ), #131, .F. ) ;
#44 = EDGE_CURVE ( 'NONE', #13, #157, #68, .T. ) ;
#45 = EDGE_CURVE ( 'NONE', #50, #187, #143, .T. ) ;
#46 = ORIENTED_EDGE ( 'NONE', *, *, #44, .T. ) ;
#47 = ADVANCED_FACE ( 'NONE', ( #196 ), #33, .F. ) ;
#48 = PLANE ( 'NONE',  #198 ) ;
#49 = CARTESIAN_POINT ( 'NONE',  ( -18.01277277529439400, 0.0000000000000000000, 5.000000000000000000 ) ) ;
#50 = VERTEX_POINT ( 'NONE', #153 ) ;
#51 = ORIENTED_EDGE ( 'NONE', *, *, #180, .T. ) ;
#52 =( GEOMETRIC_REPRESENTATION_CONTEXT ( 3 ) GLOBAL_UNCERTAINTY_ASSIGNED_CONTEXT ( ( #76 ) ) GLOBAL_UNIT_ASSIGNED_CONTEXT ( ( #100, #135, #53 ) ) REPRESENTATION_CONTEXT ( 'NONE', 'WORKASPACE' ) );
#53 =( NAMED_UNIT ( * ) SI_UNIT ( $, .STERADIAN. ) SOLID_ANGLE_UNIT ( ) );
#54 = LINE ( 'NONE', #10, #201 ) ;
#55 = CARTESIAN_POINT ( 'NONE',  ( 4.355204334851265500, 20.00000000000000000, 4.286263797015675000E-017 ) ) ;
#56 = DIRECTION ( 'NONE',  ( 1.000000000000000000, 0.0000000000000000000, 0.0000000000000000000 ) ) ;
#57 = VECTOR ( 'NONE', #65, 1000.000000000000000 ) ;
#58 = PLANE ( 'NONE',  #91 ) ;
#59 = EDGE_LOOP ( 'NONE', ( #191, #175, #32, #138 ) ) ;
#60 = ADVANCED_BREP_SHAPE_REPRESENTATION ( '155283', ( #194, #132 ), #66 ) ;
#61 = PRODUCT_DEFINITION ( 'Î´Öª', '', #159, #184 ) ;
#62 = ORIENTED_EDGE ( 'NONE', *, *, #35, .T. ) ;
#63 = CARTESIAN_POINT ( 'NONE',  ( -16.01479566514873600, 20.00000000000000000, 5.000000000000000000 ) ) ;
#64 = DIRECTION ( 'NONE',  ( -0.0000000000000000000, -1.000000000000000000, -0.0000000000000000000 ) ) ;
#65 = DIRECTION ( 'NONE',  ( -0.0000000000000000000, -1.000000000000000000, -0.0000000000000000000 ) ) ;
#66 =( GEOMETRIC_REPRESENTATION_CONTEXT ( 3 ) GLOBAL_UNCERTAINTY_ASSIGNED_CONTEXT ( ( #23 ) ) GLOBAL_UNIT_ASSIGNED_CONTEXT ( ( #146, #162, #141 ) ) REPRESENTATION_CONTEXT ( 'NONE', 'WORKASPACE' ) );
#67 = CARTESIAN_POINT ( 'NONE',  ( -18.01277277529439400, 20.00000000000000000, 5.000000000000000000 ) ) ;
#68 = LINE ( 'NONE', #63, #27 ) ;
#69 = CARTESIAN_POINT ( 'NONE',  ( -18.01277277529439400, 20.00000000000000000, -5.000000000000000000 ) ) ;
#70 = CARTESIAN_POINT ( 'NONE',  ( -18.01277277529439400, 0.0000000000000000000, -5.000000000000000000 ) ) ;
#71 = CARTESIAN_POINT ( 'NONE',  ( 4.355204334851265500, 20.00000000000000000, 4.286263797015675000E-017 ) ) ;
#72 = ORIENTED_EDGE ( 'NONE', *, *, #126, .T. ) ;
#73 = ORIENTED_EDGE ( 'NONE', *, *, #3, .F. ) ;
#74 = LINE ( 'NONE', #67, #120 ) ;
#75 = PRODUCT ( '155283', '155283', '', ( #167 ) ) ;
#76 = UNCERTAINTY_MEASURE_WITH_UNIT (LENGTH_MEASURE( 1.000000000000000100E-005 ), #100, 'distance_accuracy_value', 'NONE');
#77 = LINE ( 'NONE', #183, #182 ) ;
#78 = PRESENTATION_STYLE_ASSIGNMENT (( #178 ) ) ;
#79 = EDGE_CURVE ( 'NONE', #16, #157, #109, .T. ) ;
#80 = ORIENTED_EDGE ( 'NONE', *, *, #180, .F. ) ;
#81 = ORIENTED_EDGE ( 'NONE', *, *, #44, .F. ) ;
#82 = CARTESIAN_POINT ( 'NONE',  ( -16.01479566514873900, 20.00000000000000000, -5.000000000000001800 ) ) ;
#83 = DIRECTION ( 'NONE',  ( -3.469446951953613700E-016, -0.0000000000000000000, -1.000000000000000000 ) ) ;
#84 = ORIENTED_EDGE ( 'NONE', *, *, #45, .F. ) ;
#85 = CARTESIAN_POINT ( 'NONE',  ( 4.355204334851265500, 0.0000000000000000000, 4.286263797015675000E-017 ) ) ;
#86 = DIRECTION ( 'NONE',  ( 0.0000000000000000000, -0.0000000000000000000, 1.000000000000000000 ) ) ;
#87 = EDGE_LOOP ( 'NONE', ( #163, #177, #84, #62 ) ) ;
#88 = CARTESIAN_POINT ( 'NONE',  ( 4.355204334851265500, 0.0000000000000000000, 4.286263797015675000E-017 ) ) ;
#89 = DIRECTION ( 'NONE',  ( -1.000000000000000000, -0.0000000000000000000, 8.682399148458433600E-016 ) ) ;
#90 = SURFACE_SIDE_STYLE ('',( #152 ) ) ;
#91 = AXIS2_PLACEMENT_3D ( 'NONE', #88, #176, #86 ) ;
#92 = LINE ( 'NONE', #119, #129 ) ;
#93 = CYLINDRICAL_SURFACE ( 'NONE', #188, 22.92000000000000200 ) ;
#94 = PRESENTATION_LAYER_ASSIGNMENT (  '', '', ( #195 ) ) ;
#95 = VERTEX_POINT ( 'NONE', #22 ) ;
#96 = CIRCLE ( 'NONE', #121, 22.92000000000000200 ) ;
#97 = AXIS2_PLACEMENT_3D ( 'NONE', #139, #104, #169 ) ;
#98 = ORIENTED_EDGE ( 'NONE', *, *, #79, .T. ) ;
#99 = APPLICATION_PROTOCOL_DEFINITION ( 'draft international standard', 'automotive_design', 1998, #111 ) ;
#100 =( LENGTH_UNIT ( ) NAMED_UNIT ( * ) SI_UNIT ( .MILLI., .METRE. ) );
#101 = CARTESIAN_POINT ( 'NONE',  ( -16.01479566514873900, 0.0000000000000000000, -5.000000000000001800 ) ) ;
#102 = DIRECTION ( 'NONE',  ( 0.0000000000000000000, 1.000000000000000000, 0.0000000000000000000 ) ) ;
#103 = CARTESIAN_POINT ( 'NONE',  ( 0.0000000000000000000, 0.0000000000000000000, 0.0000000000000000000 ) ) ;
#104 = DIRECTION ( 'NONE',  ( -1.000000000000000000, 0.0000000000000000000, 3.469446951953613700E-016 ) ) ;
#105 = VERTEX_POINT ( 'NONE', #70 ) ;
#106 = COLOUR_RGB ( '',1.000000000000000000, 1.000000000000000000, 1.000000000000000000 ) ;
#107 = DIRECTION ( 'NONE',  ( 0.0000000000000000000, -0.0000000000000000000, 1.000000000000000000 ) ) ;
#108 = VECTOR ( 'NONE', #56, 1000.000000000000000 ) ;
#109 = LINE ( 'NONE', #49, #108 ) ;
#110 = ADVANCED_FACE ( 'NONE', ( #118 ), #58, .F. ) ;
#111 = APPLICATION_CONTEXT ( 'automotive_design' ) ;
#112 = CARTESIAN_POINT ( 'NONE',  ( -16.01479566514873900, 20.00000000000000000, -5.000000000000001800 ) ) ;
#113 = PRESENTATION_STYLE_ASSIGNMENT (( #7 ) ) ;
#114 = DIRECTION ( 'NONE',  ( 0.0000000000000000000, 0.0000000000000000000, -1.000000000000000000 ) ) ;
#115 = DIRECTION ( 'NONE',  ( 0.0000000000000000000, 1.000000000000000000, 0.0000000000000000000 ) ) ;
#116 = DIRECTION ( 'NONE',  ( 1.000000000000000000, 0.0000000000000000000, 0.0000000000000000000 ) ) ;
#117 = FILL_AREA_STYLE ('',( #11 ) ) ;
#118 = FACE_OUTER_BOUND ( 'NONE', #26, .T. ) ;
#119 = CARTESIAN_POINT ( 'NONE',  ( -18.01277277529439400, 0.0000000000000000000, -5.000000000000000000 ) ) ;
#120 = VECTOR ( 'NONE', #158, 1000.000000000000000 ) ;
#121 = AXIS2_PLACEMENT_3D ( 'NONE', #85, #115, #179 ) ;
#122 = EDGE_LOOP ( 'NONE', ( #166, #147, #80, #46 ) ) ;
#123 = SHAPE_DEFINITION_REPRESENTATION ( #142, #60 ) ;
#124 = FACE_OUTER_BOUND ( 'NONE', #122, .T. ) ;
#125 = ORIENTED_EDGE ( 'NONE', *, *, #45, .T. ) ;
#126 = EDGE_CURVE ( 'NONE', #1, #50, #77, .T. ) ;
#127 = LINE ( 'NONE', #189, #144 ) ;
#128 = ADVANCED_FACE ( 'NONE', ( #171 ), #93, .T. ) ;
#129 = VECTOR ( 'NONE', #18, 1000.000000000000000 ) ;
#130 = COLOUR_RGB ( '',1.000000000000000000, 1.000000000000000000, 1.000000000000000000 ) ;
#131 = PLANE ( 'NONE',  #97 ) ;
#132 = AXIS2_PLACEMENT_3D ( 'NONE', #103, #148, #116 ) ;
#133 = ORIENTED_EDGE ( 'NONE', *, *, #9, .F. ) ;
#134 = FACE_OUTER_BOUND ( 'NONE', #59, .T. ) ;
#135 =( NAMED_UNIT ( * ) PLANE_ANGLE_UNIT ( ) SI_UNIT ( $, .RADIAN. ) );
#136 = STYLED_ITEM ( 'NONE', ( #113 ), #194 ) ;
#137 = CARTESIAN_POINT ( 'NONE',  ( -16.01479566514873600, 0.0000000000000000000, 5.000000000000000000 ) ) ;
#138 = ORIENTED_EDGE ( 'NONE', *, *, #173, .T. ) ;
#139 = CARTESIAN_POINT ( 'NONE',  ( -16.01479566514873900, 20.00000000000000000, -5.000000000000001800 ) ) ;
#140 = DIRECTION ( 'NONE',  ( -1.000000000000000000, 0.0000000000000000000, -0.0000000000000000000 ) ) ;
#141 =( NAMED_UNIT ( * ) SI_UNIT ( $, .STERADIAN. ) SOLID_ANGLE_UNIT ( ) );
#142 = PRODUCT_DEFINITION_SHAPE ( 'NONE', 'NONE',  #61 ) ;
#143 = CIRCLE ( 'NONE', #149, 22.92000000000000200 ) ;
#144 = VECTOR ( 'NONE', #64, 1000.000000000000000 ) ;
#145 = PRESENTATION_LAYER_ASSIGNMENT (  '', '', ( #136 ) ) ;
#146 =( LENGTH_UNIT ( ) NAMED_UNIT ( * ) SI_UNIT ( .MILLI., .METRE. ) );
#147 = ORIENTED_EDGE ( 'NONE', *, *, #173, .F. ) ;
#148 = DIRECTION ( 'NONE',  ( 0.0000000000000000000, 0.0000000000000000000, 1.000000000000000000 ) ) ;
#149 = AXIS2_PLACEMENT_3D ( 'NONE', #55, #102, #8 ) ;
#150 = APPLICATION_CONTEXT ( 'automotive_design' ) ;
#151 =( NAMED_UNIT ( * ) SI_UNIT ( $, .STERADIAN. ) SOLID_ANGLE_UNIT ( ) );
#152 = SURFACE_STYLE_FILL_AREA ( #117 ) ;
#153 = CARTESIAN_POINT ( 'NONE',  ( -18.01277277529439400, 20.00000000000000000, -5.000000000000000000 ) ) ;
#154 = ORIENTED_EDGE ( 'NONE', *, *, #79, .F. ) ;
#155 = ORIENTED_EDGE ( 'NONE', *, *, #29, .F. ) ;
#156 = LINE ( 'NONE', #21, #57 ) ;
#157 = VERTEX_POINT ( 'NONE', #137 ) ;
#158 = DIRECTION ( 'NONE',  ( 1.000000000000000000, 0.0000000000000000000, 0.0000000000000000000 ) ) ;
#159 = PRODUCT_DEFINITION_FORMATION_WITH_SPECIFIED_SOURCE ( 'ÈÎºÎ', '', #75, .NOT_KNOWN. ) ;
#160 = DIRECTION ( 'NONE',  ( -3.469446951953613700E-016, -0.0000000000000000000, -1.000000000000000000 ) ) ;
#161 = VECTOR ( 'NONE', #160, 1000.000000000000000 ) ;
#162 =( NAMED_UNIT ( * ) PLANE_ANGLE_UNIT ( ) SI_UNIT ( $, .RADIAN. ) );
#163 = ORIENTED_EDGE ( 'NONE', *, *, #4, .T. ) ;
#164 = DIRECTION ( 'NONE',  ( -0.0000000000000000000, -1.000000000000000000, -0.0000000000000000000 ) ) ;
#165 = SURFACE_SIDE_STYLE ('',( #185 ) ) ;
#166 = ORIENTED_EDGE ( 'NONE', *, *, #3, .T. ) ;
#167 = PRODUCT_CONTEXT ( 'NONE', #111, 'mechanical' ) ;
#168 = CARTESIAN_POINT ( 'NONE',  ( -16.01479566514873600, 20.00000000000000000, 5.000000000000000000 ) ) ;
#169 = DIRECTION ( 'NONE',  ( 3.469446951953613700E-016, 0.0000000000000000000, 1.000000000000000000 ) ) ;
#170 = EDGE_LOOP ( 'NONE', ( #98, #81, #155, #28 ) ) ;
#171 = FACE_OUTER_BOUND ( 'NONE', #87, .T. ) ;
#172 = ORIENTED_EDGE ( 'NONE', *, *, #29, .T. ) ;
#173 = EDGE_CURVE ( 'NONE', #1, #95, #156, .T. ) ;
#174 = CLOSED_SHELL ( 'NONE', ( #128, #47, #43, #15, #186, #110 ) ) ;
#175 = ORIENTED_EDGE ( 'NONE', *, *, #35, .F. ) ;
#176 = DIRECTION ( 'NONE',  ( 0.0000000000000000000, 1.000000000000000000, 0.0000000000000000000 ) ) ;
#177 = ORIENTED_EDGE ( 'NONE', *, *, #31, .F. ) ;
#178 = SURFACE_STYLE_USAGE ( .BOTH. , #165 ) ;
#179 = DIRECTION ( 'NONE',  ( 0.0000000000000000000, 0.0000000000000000000, 1.000000000000000000 ) ) ;
#180 = EDGE_CURVE ( 'NONE', #13, #1, #17, .T. ) ;
#181 = DIRECTION ( 'NONE',  ( 0.0000000000000000000, 1.000000000000000000, 0.0000000000000000000 ) ) ;
#182 = VECTOR ( 'NONE', #89, 1000.000000000000000 ) ;
#183 = CARTESIAN_POINT ( 'NONE',  ( -18.01277277529439400, 20.00000000000000000, -5.000000000000000000 ) ) ;
#184 = PRODUCT_DEFINITION_CONTEXT ( 'detailed design', #150, 'design' ) ;
#185 = SURFACE_STYLE_FILL_AREA ( #20 ) ;
#186 = ADVANCED_FACE ( 'NONE', ( #2 ), #204, .T. ) ;
#187 = VERTEX_POINT ( 'NONE', #37 ) ;
#188 = AXIS2_PLACEMENT_3D ( 'NONE', #203, #200, #193 ) ;
#189 = CARTESIAN_POINT ( 'NONE',  ( -18.01277277529439400, 20.00000000000000000, -5.000000000000000000 ) ) ;
#190 =( GEOMETRIC_REPRESENTATION_CONTEXT ( 3 ) GLOBAL_UNCERTAINTY_ASSIGNED_CONTEXT ( ( #38 ) ) GLOBAL_UNIT_ASSIGNED_CONTEXT ( ( #24, #36, #151 ) ) REPRESENTATION_CONTEXT ( 'NONE', 'WORKASPACE' ) );
#191 = ORIENTED_EDGE ( 'NONE', *, *, #9, .T. ) ;
#192 = APPLICATION_PROTOCOL_DEFINITION ( 'draft international standard', 'automotive_design', 1998, #150 ) ;
#193 = DIRECTION ( 'NONE',  ( 0.0000000000000000000, 0.0000000000000000000, -1.000000000000000000 ) ) ;
#194 = MANIFOLD_SOLID_BREP ( 'Í¹Ì¨-À­Éì1', #174 ) ;
#195 = STYLED_ITEM ( 'NONE', ( #78 ), #60 ) ;
#196 = FACE_OUTER_BOUND ( 'NONE', #170, .T. ) ;
#197 = FILL_AREA_STYLE_COLOUR ( '', #130 ) ;
#198 = AXIS2_PLACEMENT_3D ( 'NONE', #69, #6, #34 ) ;
#199 = DIRECTION ( 'NONE',  ( -0.0000000000000000000, -1.000000000000000000, -0.0000000000000000000 ) ) ;
#200 = DIRECTION ( 'NONE',  ( -0.0000000000000000000, -1.000000000000000000, -0.0000000000000000000 ) ) ;
#201 = VECTOR ( 'NONE', #199, 1000.000000000000000 ) ;
#202 = ORIENTED_EDGE ( 'NONE', *, *, #4, .F. ) ;
#203 = CARTESIAN_POINT ( 'NONE',  ( 4.355204334851265500, 20.00000000000000000, 4.286263797015675000E-017 ) ) ;
#204 = PLANE ( 'NONE',  #30 ) ;
ENDSEC;
END-ISO-10303-21;
