ISO-10303-21;
HEADER;
FILE_DESCRIPTION (( 'STEP AP214' ),
    '1' );
FILE_NAME ('155284.STEP',
    '2019-06-26T02:26:59',
    ( 'user' ),
    ( 'Î¢ÈíÖÐ¹ú' ),
    'SwSTEP 2.0',
    'SolidWorks 2016',
    '' );
FILE_SCHEMA (( 'AUTOMOTIVE_DESIGN' ));
ENDSEC;

DATA;
#1 = CARTESIAN_POINT ( 'NONE',  ( -29.62894638279945500, 0.0000000000000000000, -5.000000000000000000 ) ) ;
#2 = ORIENTED_EDGE ( 'NONE', *, *, #95, .T. ) ;
#3 = EDGE_LOOP ( 'NONE', ( #52, #45, #86, #2 ) ) ;
#4 = ADVANCED_FACE ( 'NONE', ( #192 ), #191, .T. ) ;
#5 = ORIENTED_EDGE ( 'NONE', *, *, #107, .T. ) ;
#6 = EDGE_LOOP ( 'NONE', ( #148, #169, #146, #127 ) ) ;
#7 = VERTEX_POINT ( 'NONE', #46 ) ;
#8 = UNCERTAINTY_MEASURE_WITH_UNIT (LENGTH_MEASURE( 1.000000000000000100E-005 ), #102, 'distance_accuracy_value', 'NONE');
#9 = CARTESIAN_POINT ( 'NONE',  ( -29.62894638279945500, 0.0000000000000000000, 5.000000000000000000 ) ) ;
#10 = AXIS2_PLACEMENT_3D ( 'NONE', #154, #142, #19 ) ;
#11 = SURFACE_SIDE_STYLE ('',( #174 ) ) ;
#12 = ORIENTED_EDGE ( 'NONE', *, *, #201, .T. ) ;
#13 = DIRECTION ( 'NONE',  ( 0.0000000000000000000, 1.000000000000000000, 0.0000000000000000000 ) ) ;
#14 = DIRECTION ( 'NONE',  ( 3.469446951953613700E-016, 0.0000000000000000000, 1.000000000000000000 ) ) ;
#15 = CARTESIAN_POINT ( 'NONE',  ( -27.62479566514873100, 0.0000000000000000000, 5.000000000000000000 ) ) ;
#16 = DIRECTION ( 'NONE',  ( 0.0000000000000000000, 0.0000000000000000000, 1.000000000000000000 ) ) ;
#17 = MECHANICAL_DESIGN_GEOMETRIC_PRESENTATION_REPRESENTATION (  '', ( #194 ), #70 ) ;
#18 = DIRECTION ( 'NONE',  ( 1.000000000000000000, 0.0000000000000000000, 0.0000000000000000000 ) ) ;
#19 = DIRECTION ( 'NONE',  ( 0.0000000000000000000, 0.0000000000000000000, -1.000000000000000000 ) ) ;
#20 = LINE ( 'NONE', #193, #28 ) ;
#21 = EDGE_CURVE ( 'NONE', #128, #36, #97, .T. ) ;
#22 = CARTESIAN_POINT ( 'NONE',  ( -29.62894638279945500, 20.00000000000000000, 5.000000000000000000 ) ) ;
#23 = DIRECTION ( 'NONE',  ( 0.0000000000000000000, 1.000000000000000000, 0.0000000000000000000 ) ) ;
#24 = LINE ( 'NONE', #33, #204 ) ;
#25 = AXIS2_PLACEMENT_3D ( 'NONE', #112, #163, #178 ) ;
#26 = DIRECTION ( 'NONE',  ( -1.000000000000000000, -0.0000000000000000000, 8.655653792396725100E-016 ) ) ;
#27 = UNCERTAINTY_MEASURE_WITH_UNIT (LENGTH_MEASURE( 1.000000000000000100E-005 ), #160, 'distance_accuracy_value', 'NONE');
#28 = VECTOR ( 'NONE', #83, 1000.000000000000000 ) ;
#29 = ORIENTED_EDGE ( 'NONE', *, *, #190, .T. ) ;
#30 = FACE_OUTER_BOUND ( 'NONE', #200, .T. ) ;
#31 = CARTESIAN_POINT ( 'NONE',  ( -29.62894638279945500, 0.0000000000000000000, 5.000000000000000000 ) ) ;
#32 = FILL_AREA_STYLE_COLOUR ( '', #157 ) ;
#33 = CARTESIAN_POINT ( 'NONE',  ( -29.62894638279945500, 20.00000000000000000, 5.000000000000000000 ) ) ;
#34 = ADVANCED_FACE ( 'NONE', ( #75 ), #131, .F. ) ;
#35 = CARTESIAN_POINT ( 'NONE',  ( -27.62479566514873500, 0.0000000000000000000, -5.000000000000001800 ) ) ;
#36 = VERTEX_POINT ( 'NONE', #31 ) ;
#37 = ORIENTED_EDGE ( 'NONE', *, *, #53, .F. ) ;
#38 = APPLICATION_PROTOCOL_DEFINITION ( 'draft international standard', 'automotive_design', 1998, #152 ) ;
#39 = ADVANCED_FACE ( 'NONE', ( #30 ), #90, .T. ) ;
#40 =( GEOMETRIC_REPRESENTATION_CONTEXT ( 3 ) GLOBAL_UNCERTAINTY_ASSIGNED_CONTEXT ( ( #27 ) ) GLOBAL_UNIT_ASSIGNED_CONTEXT ( ( #160, #106, #89 ) ) REPRESENTATION_CONTEXT ( 'NONE', 'WORKASPACE' ) );
#41 = UNCERTAINTY_MEASURE_WITH_UNIT (LENGTH_MEASURE( 1.000000000000000100E-005 ), #149, 'distance_accuracy_value', 'NONE');
#42 = APPLICATION_CONTEXT ( 'automotive_design' ) ;
#43 =( GEOMETRIC_REPRESENTATION_CONTEXT ( 3 ) GLOBAL_UNCERTAINTY_ASSIGNED_CONTEXT ( ( #8 ) ) GLOBAL_UNIT_ASSIGNED_CONTEXT ( ( #102, #47, #49 ) ) REPRESENTATION_CONTEXT ( 'NONE', 'WORKASPACE' ) );
#44 = VECTOR ( 'NONE', #140, 1000.000000000000000 ) ;
#45 = ORIENTED_EDGE ( 'NONE', *, *, #119, .F. ) ;
#46 = CARTESIAN_POINT ( 'NONE',  ( -27.62479566514873500, 20.00000000000000000, -5.000000000000001800 ) ) ;
#47 =( NAMED_UNIT ( * ) PLANE_ANGLE_UNIT ( ) SI_UNIT ( $, .RADIAN. ) );
#48 = SURFACE_STYLE_USAGE ( .BOTH. , #77 ) ;
#49 =( NAMED_UNIT ( * ) SI_UNIT ( $, .STERADIAN. ) SOLID_ANGLE_UNIT ( ) );
#50 = AXIS2_PLACEMENT_3D ( 'NONE', #184, #63, #18 ) ;
#51 = CIRCLE ( 'NONE', #145, 34.35000000000000100 ) ;
#52 = ORIENTED_EDGE ( 'NONE', *, *, #188, .T. ) ;
#53 = EDGE_CURVE ( 'NONE', #61, #162, #51, .T. ) ;
#54 =( NAMED_UNIT ( * ) SI_UNIT ( $, .STERADIAN. ) SOLID_ANGLE_UNIT ( ) );
#55 = PRESENTATION_STYLE_ASSIGNMENT (( #48 ) ) ;
#56 = DIRECTION ( 'NONE',  ( -3.469446951953613700E-016, -0.0000000000000000000, -1.000000000000000000 ) ) ;
#57 = PLANE ( 'NONE',  #166 ) ;
#58 = ORIENTED_EDGE ( 'NONE', *, *, #150, .F. ) ;
#59 = FILL_AREA_STYLE ('',( #32 ) ) ;
#60 = VECTOR ( 'NONE', #135, 1000.000000000000000 ) ;
#61 = VERTEX_POINT ( 'NONE', #186 ) ;
#62 = PLANE ( 'NONE',  #79 ) ;
#63 = DIRECTION ( 'NONE',  ( 0.0000000000000000000, 0.0000000000000000000, 1.000000000000000000 ) ) ;
#64 = CARTESIAN_POINT ( 'NONE',  ( -29.62894638279945500, 0.0000000000000000000, -5.000000000000000000 ) ) ;
#65 = PRODUCT_RELATED_PRODUCT_CATEGORY ( 'part', '', ( #105 ) ) ;
#66 = FILL_AREA_STYLE_COLOUR ( '', #73 ) ;
#67 = LINE ( 'NONE', #78, #60 ) ;
#68 = FACE_OUTER_BOUND ( 'NONE', #3, .T. ) ;
#69 = DIRECTION ( 'NONE',  ( 8.655653792396725100E-016, -0.0000000000000000000, 1.000000000000000000 ) ) ;
#70 =( GEOMETRIC_REPRESENTATION_CONTEXT ( 3 ) GLOBAL_UNCERTAINTY_ASSIGNED_CONTEXT ( ( #41 ) ) GLOBAL_UNIT_ASSIGNED_CONTEXT ( ( #149, #76, #54 ) ) REPRESENTATION_CONTEXT ( 'NONE', 'WORKASPACE' ) );
#71 = CARTESIAN_POINT ( 'NONE',  ( 4.355204334851265500, 0.0000000000000000000, 4.286263797015675000E-017 ) ) ;
#72 = FILL_AREA_STYLE ('',( #66 ) ) ;
#73 = COLOUR_RGB ( '',1.000000000000000000, 1.000000000000000000, 1.000000000000000000 ) ;
#74 = EDGE_LOOP ( 'NONE', ( #29, #58, #172, #100 ) ) ;
#75 = FACE_OUTER_BOUND ( 'NONE', #120, .T. ) ;
#76 =( NAMED_UNIT ( * ) PLANE_ANGLE_UNIT ( ) SI_UNIT ( $, .RADIAN. ) );
#77 = SURFACE_SIDE_STYLE ('',( #168 ) ) ;
#78 = CARTESIAN_POINT ( 'NONE',  ( -27.62479566514873100, 20.00000000000000000, 5.000000000000000000 ) ) ;
#79 = AXIS2_PLACEMENT_3D ( 'NONE', #147, #88, #14 ) ;
#80 = VECTOR ( 'NONE', #116, 1000.000000000000000 ) ;
#81 = ORIENTED_EDGE ( 'NONE', *, *, #176, .T. ) ;
#82 = CARTESIAN_POINT ( 'NONE',  ( -27.62479566514873500, 20.00000000000000000, -5.000000000000001800 ) ) ;
#83 = DIRECTION ( 'NONE',  ( -0.0000000000000000000, -1.000000000000000000, -0.0000000000000000000 ) ) ;
#84 = PRESENTATION_STYLE_ASSIGNMENT (( #180 ) ) ;
#85 = VERTEX_POINT ( 'NONE', #87 ) ;
#86 = ORIENTED_EDGE ( 'NONE', *, *, #161, .F. ) ;
#87 = CARTESIAN_POINT ( 'NONE',  ( -27.62479566514873100, 20.00000000000000000, 5.000000000000000000 ) ) ;
#88 = DIRECTION ( 'NONE',  ( -1.000000000000000000, 0.0000000000000000000, 3.469446951953613700E-016 ) ) ;
#89 =( NAMED_UNIT ( * ) SI_UNIT ( $, .STERADIAN. ) SOLID_ANGLE_UNIT ( ) );
#90 = PLANE ( 'NONE',  #25 ) ;
#91 = AXIS2_PLACEMENT_3D ( 'NONE', #118, #13, #137 ) ;
#92 = ORIENTED_EDGE ( 'NONE', *, *, #150, .T. ) ;
#93 = CARTESIAN_POINT ( 'NONE',  ( -27.62479566514873500, 20.00000000000000000, -5.000000000000001800 ) ) ;
#94 = PRESENTATION_LAYER_ASSIGNMENT (  '', '', ( #194 ) ) ;
#95 = EDGE_CURVE ( 'NONE', #85, #159, #67, .T. ) ;
#96 = DIRECTION ( 'NONE',  ( 0.0000000000000000000, 1.000000000000000000, 0.0000000000000000000 ) ) ;
#97 = CIRCLE ( 'NONE', #113, 34.35000000000000100 ) ;
#98 = CARTESIAN_POINT ( 'NONE',  ( -27.62479566514873500, 0.0000000000000000000, -5.000000000000001800 ) ) ;
#99 = DIRECTION ( 'NONE',  ( 0.0000000000000000000, 0.0000000000000000000, -1.000000000000000000 ) ) ;
#100 = ORIENTED_EDGE ( 'NONE', *, *, #119, .T. ) ;
#101 = ADVANCED_BREP_SHAPE_REPRESENTATION ( '155284', ( #153, #50 ), #40 ) ;
#102 =( LENGTH_UNIT ( ) NAMED_UNIT ( * ) SI_UNIT ( .MILLI., .METRE. ) );
#103 = VECTOR ( 'NONE', #26, 1000.000000000000000 ) ;
#104 = ORIENTED_EDGE ( 'NONE', *, *, #53, .T. ) ;
#105 = PRODUCT ( '155284', '155284', '', ( #175 ) ) ;
#106 =( NAMED_UNIT ( * ) PLANE_ANGLE_UNIT ( ) SI_UNIT ( $, .RADIAN. ) );
#107 = EDGE_CURVE ( 'NONE', #162, #85, #151, .T. ) ;
#108 = ORIENTED_EDGE ( 'NONE', *, *, #144, .T. ) ;
#109 = FACE_OUTER_BOUND ( 'NONE', #6, .T. ) ;
#110 = MECHANICAL_DESIGN_GEOMETRIC_PRESENTATION_REPRESENTATION (  '', ( #139 ), #43 ) ;
#111 = LINE ( 'NONE', #9, #122 ) ;
#112 = CARTESIAN_POINT ( 'NONE',  ( 4.355204334851265500, 20.00000000000000000, 4.286263797015675000E-017 ) ) ;
#113 = AXIS2_PLACEMENT_3D ( 'NONE', #71, #96, #181 ) ;
#114 = DIRECTION ( 'NONE',  ( 1.000000000000000000, 0.0000000000000000000, -8.655653792396725100E-016 ) ) ;
#115 = PRESENTATION_LAYER_ASSIGNMENT (  '', '', ( #139 ) ) ;
#116 = DIRECTION ( 'NONE',  ( -3.469446951953613700E-016, -0.0000000000000000000, -1.000000000000000000 ) ) ;
#117 = LINE ( 'NONE', #82, #44 ) ;
#118 = CARTESIAN_POINT ( 'NONE',  ( 4.355204334851265500, 0.0000000000000000000, 4.286263797015675000E-017 ) ) ;
#119 = EDGE_CURVE ( 'NONE', #7, #187, #117, .T. ) ;
#120 = EDGE_LOOP ( 'NONE', ( #81, #134, #197, #108 ) ) ;
#121 = ADVANCED_FACE ( 'NONE', ( #126 ), #57, .F. ) ;
#122 = VECTOR ( 'NONE', #129, 1000.000000000000000 ) ;
#123 = ORIENTED_EDGE ( 'NONE', *, *, #161, .T. ) ;
#124 = ADVANCED_FACE ( 'NONE', ( #68 ), #62, .F. ) ;
#125 = CARTESIAN_POINT ( 'NONE',  ( -29.62894638279945500, 20.00000000000000000, 5.000000000000000000 ) ) ;
#126 = FACE_OUTER_BOUND ( 'NONE', #74, .T. ) ;
#127 = ORIENTED_EDGE ( 'NONE', *, *, #176, .F. ) ;
#128 = VERTEX_POINT ( 'NONE', #1 ) ;
#129 = DIRECTION ( 'NONE',  ( 1.000000000000000000, 0.0000000000000000000, 0.0000000000000000000 ) ) ;
#130 = DIRECTION ( 'NONE',  ( -0.0000000000000000000, -1.000000000000000000, -0.0000000000000000000 ) ) ;
#131 = PLANE ( 'NONE',  #136 ) ;
#132 = APPLICATION_PROTOCOL_DEFINITION ( 'draft international standard', 'automotive_design', 1998, #42 ) ;
#133 = EDGE_LOOP ( 'NONE', ( #171, #195, #37, #92 ) ) ;
#134 = ORIENTED_EDGE ( 'NONE', *, *, #95, .F. ) ;
#135 = DIRECTION ( 'NONE',  ( -0.0000000000000000000, -1.000000000000000000, -0.0000000000000000000 ) ) ;
#136 = AXIS2_PLACEMENT_3D ( 'NONE', #198, #99, #173 ) ;
#137 = DIRECTION ( 'NONE',  ( 0.0000000000000000000, -0.0000000000000000000, 1.000000000000000000 ) ) ;
#138 = ADVANCED_FACE ( 'NONE', ( #109 ), #183, .F. ) ;
#139 = STYLED_ITEM ( 'NONE', ( #55 ), #101 ) ;
#140 = DIRECTION ( 'NONE',  ( -0.0000000000000000000, -1.000000000000000000, -0.0000000000000000000 ) ) ;
#141 = DIRECTION ( 'NONE',  ( 1.000000000000000000, 0.0000000000000000000, 0.0000000000000000000 ) ) ;
#142 = DIRECTION ( 'NONE',  ( -0.0000000000000000000, -1.000000000000000000, -0.0000000000000000000 ) ) ;
#143 = VECTOR ( 'NONE', #158, 1000.000000000000000 ) ;
#144 = EDGE_CURVE ( 'NONE', #162, #36, #24, .T. ) ;
#145 = AXIS2_PLACEMENT_3D ( 'NONE', #177, #23, #16 ) ;
#146 = ORIENTED_EDGE ( 'NONE', *, *, #188, .F. ) ;
#147 = CARTESIAN_POINT ( 'NONE',  ( -27.62479566514873500, 20.00000000000000000, -5.000000000000001800 ) ) ;
#148 = ORIENTED_EDGE ( 'NONE', *, *, #21, .F. ) ;
#149 =( LENGTH_UNIT ( ) NAMED_UNIT ( * ) SI_UNIT ( .MILLI., .METRE. ) );
#150 = EDGE_CURVE ( 'NONE', #61, #128, #20, .T. ) ;
#151 = LINE ( 'NONE', #22, #196 ) ;
#152 = APPLICATION_CONTEXT ( 'automotive_design' ) ;
#153 = MANIFOLD_SOLID_BREP ( 'Í¹Ì¨-À­Éì1', #179 ) ;
#154 = CARTESIAN_POINT ( 'NONE',  ( 4.355204334851265500, 20.00000000000000000, 4.286263797015675000E-017 ) ) ;
#155 = LINE ( 'NONE', #98, #170 ) ;
#156 = CARTESIAN_POINT ( 'NONE',  ( -29.62894638279945500, 20.00000000000000000, -5.000000000000000000 ) ) ;
#157 = COLOUR_RGB ( '',1.000000000000000000, 1.000000000000000000, 1.000000000000000000 ) ;
#158 = DIRECTION ( 'NONE',  ( -1.000000000000000000, -0.0000000000000000000, 8.655653792396725100E-016 ) ) ;
#159 = VERTEX_POINT ( 'NONE', #15 ) ;
#160 =( LENGTH_UNIT ( ) NAMED_UNIT ( * ) SI_UNIT ( .MILLI., .METRE. ) );
#161 = EDGE_CURVE ( 'NONE', #85, #7, #185, .T. ) ;
#162 = VERTEX_POINT ( 'NONE', #125 ) ;
#163 = DIRECTION ( 'NONE',  ( 0.0000000000000000000, 1.000000000000000000, 0.0000000000000000000 ) ) ;
#164 = SHAPE_DEFINITION_REPRESENTATION ( #189, #101 ) ;
#165 = PRODUCT_DEFINITION_FORMATION_WITH_SPECIFIED_SOURCE ( 'ÈÎºÎ', '', #105, .NOT_KNOWN. ) ;
#166 = AXIS2_PLACEMENT_3D ( 'NONE', #156, #69, #114 ) ;
#167 = CARTESIAN_POINT ( 'NONE',  ( -29.62894638279945500, 20.00000000000000000, -5.000000000000000000 ) ) ;
#168 = SURFACE_STYLE_FILL_AREA ( #72 ) ;
#169 = ORIENTED_EDGE ( 'NONE', *, *, #190, .F. ) ;
#170 = VECTOR ( 'NONE', #56, 1000.000000000000000 ) ;
#171 = ORIENTED_EDGE ( 'NONE', *, *, #21, .T. ) ;
#172 = ORIENTED_EDGE ( 'NONE', *, *, #201, .F. ) ;
#173 = DIRECTION ( 'NONE',  ( -1.000000000000000000, 0.0000000000000000000, -0.0000000000000000000 ) ) ;
#174 = SURFACE_STYLE_FILL_AREA ( #59 ) ;
#175 = PRODUCT_CONTEXT ( 'NONE', #152, 'mechanical' ) ;
#176 = EDGE_CURVE ( 'NONE', #36, #159, #111, .T. ) ;
#177 = CARTESIAN_POINT ( 'NONE',  ( 4.355204334851265500, 20.00000000000000000, 4.286263797015675000E-017 ) ) ;
#178 = DIRECTION ( 'NONE',  ( 0.0000000000000000000, -0.0000000000000000000, 1.000000000000000000 ) ) ;
#179 = CLOSED_SHELL ( 'NONE', ( #4, #34, #124, #121, #39, #138 ) ) ;
#180 = SURFACE_STYLE_USAGE ( .BOTH. , #11 ) ;
#181 = DIRECTION ( 'NONE',  ( 0.0000000000000000000, 0.0000000000000000000, 1.000000000000000000 ) ) ;
#182 = PRODUCT_DEFINITION ( 'Î´Öª', '', #165, #203 ) ;
#183 = PLANE ( 'NONE',  #91 ) ;
#184 = CARTESIAN_POINT ( 'NONE',  ( 0.0000000000000000000, 0.0000000000000000000, 0.0000000000000000000 ) ) ;
#185 = LINE ( 'NONE', #93, #80 ) ;
#186 = CARTESIAN_POINT ( 'NONE',  ( -29.62894638279945500, 20.00000000000000000, -5.000000000000000000 ) ) ;
#187 = VERTEX_POINT ( 'NONE', #35 ) ;
#188 = EDGE_CURVE ( 'NONE', #159, #187, #155, .T. ) ;
#189 = PRODUCT_DEFINITION_SHAPE ( 'NONE', 'NONE',  #182 ) ;
#190 = EDGE_CURVE ( 'NONE', #187, #128, #199, .T. ) ;
#191 = CYLINDRICAL_SURFACE ( 'NONE', #10, 34.35000000000000100 ) ;
#192 = FACE_OUTER_BOUND ( 'NONE', #133, .T. ) ;
#193 = CARTESIAN_POINT ( 'NONE',  ( -29.62894638279945500, 20.00000000000000000, -5.000000000000000000 ) ) ;
#194 = STYLED_ITEM ( 'NONE', ( #84 ), #153 ) ;
#195 = ORIENTED_EDGE ( 'NONE', *, *, #144, .F. ) ;
#196 = VECTOR ( 'NONE', #141, 1000.000000000000000 ) ;
#197 = ORIENTED_EDGE ( 'NONE', *, *, #107, .F. ) ;
#198 = CARTESIAN_POINT ( 'NONE',  ( -29.62894638279945500, 20.00000000000000000, 5.000000000000000000 ) ) ;
#199 = LINE ( 'NONE', #64, #143 ) ;
#200 = EDGE_LOOP ( 'NONE', ( #104, #5, #123, #12 ) ) ;
#201 = EDGE_CURVE ( 'NONE', #7, #61, #202, .T. ) ;
#202 = LINE ( 'NONE', #167, #103 ) ;
#203 = PRODUCT_DEFINITION_CONTEXT ( 'detailed design', #42, 'design' ) ;
#204 = VECTOR ( 'NONE', #130, 1000.000000000000000 ) ;
ENDSEC;
END-ISO-10303-21;
