ISO-10303-21;
HEADER;
FILE_DESCRIPTION (( 'STEP AP214' ),
    '1' );
FILE_NAME ('155339.STEP',
    '2019-06-27T07:49:58',
    ( 'user' ),
    ( 'Î¢ÈíÖÐ¹ú' ),
    'SwSTEP 2.0',
    'SolidWorks 2016',
    '' );
FILE_SCHEMA (( 'AUTOMOTIVE_DESIGN' ));
ENDSEC;

DATA;
#1 =( NAMED_UNIT ( * ) PLANE_ANGLE_UNIT ( ) SI_UNIT ( $, .RADIAN. ) );
#2 = UNCERTAINTY_MEASURE_WITH_UNIT (LENGTH_MEASURE( 1.000000000000000100E-005 ), #133, 'distance_accuracy_value', 'NONE');
#3 = DIRECTION ( 'NONE',  ( 4.534563076143589500E-016, -0.0000000000000000000, 1.000000000000000000 ) ) ;
#4 = CARTESIAN_POINT ( 'NONE',  ( 0.0000000000000000000, 0.0000000000000000000, 0.0000000000000000000 ) ) ;
#5 = PRESENTATION_STYLE_ASSIGNMENT (( #69 ) ) ;
#6 = DIRECTION ( 'NONE',  ( -0.0000000000000000000, -1.000000000000000000, -0.0000000000000000000 ) ) ;
#7 = ORIENTED_EDGE ( 'NONE', *, *, #200, .T. ) ;
#8 = EDGE_CURVE ( 'NONE', #127, #152, #104, .T. ) ;
#9 = FILL_AREA_STYLE ('',( #64 ) ) ;
#10 = AXIS2_PLACEMENT_3D ( 'NONE', #39, #60, #162 ) ;
#11 = DIRECTION ( 'NONE',  ( -0.0000000000000000000, -1.000000000000000000, -0.0000000000000000000 ) ) ;
#12 =( NAMED_UNIT ( * ) PLANE_ANGLE_UNIT ( ) SI_UNIT ( $, .RADIAN. ) );
#13 = AXIS2_PLACEMENT_3D ( 'NONE', #175, #3, #114 ) ;
#14 = CARTESIAN_POINT ( 'NONE',  ( -9.759999999999999800, 12.00000000000000000, 5.000000000000000000 ) ) ;
#15 = CIRCLE ( 'NONE', #48, 7.760000000000000700 ) ;
#16 =( LENGTH_UNIT ( ) NAMED_UNIT ( * ) SI_UNIT ( .MILLI., .METRE. ) );
#17 = PRODUCT_RELATED_PRODUCT_CATEGORY ( 'part', '', ( #44 ) ) ;
#18 =( GEOMETRIC_REPRESENTATION_CONTEXT ( 3 ) GLOBAL_UNCERTAINTY_ASSIGNED_CONTEXT ( ( #2 ) ) GLOBAL_UNIT_ASSIGNED_CONTEXT ( ( #133, #79, #33 ) ) REPRESENTATION_CONTEXT ( 'NONE', 'WORKASPACE' ) );
#19 = CARTESIAN_POINT ( 'NONE',  ( -3.825558155984675000, 12.00000000000000000, 9.999999999999998200 ) ) ;
#20 = CARTESIAN_POINT ( 'NONE',  ( -3.825558155984674500, 0.0000000000000000000, 1.734723475976807100E-015 ) ) ;
#21 = CARTESIAN_POINT ( 'NONE',  ( 0.0000000000000000000, 0.0000000000000000000, 0.0000000000000000000 ) ) ;
#22 = MECHANICAL_DESIGN_GEOMETRIC_PRESENTATION_REPRESENTATION (  '', ( #130 ), #121 ) ;
#23 = ORIENTED_EDGE ( 'NONE', *, *, #103, .T. ) ;
#24 = CARTESIAN_POINT ( 'NONE',  ( 0.0000000000000000000, 0.0000000000000000000, 0.0000000000000000000 ) ) ;
#25 = VERTEX_POINT ( 'NONE', #191 ) ;
#26 = PRODUCT_DEFINITION_SHAPE ( 'NONE', 'NONE',  #153 ) ;
#27 = ADVANCED_FACE ( 'NONE', ( #94 ), #115, .F. ) ;
#28 = DIRECTION ( 'NONE',  ( 0.0000000000000000000, 0.0000000000000000000, 1.000000000000000000 ) ) ;
#29 = CARTESIAN_POINT ( 'NONE',  ( -9.759999999999999800, 0.0000000000000000000, 5.000000000000000000 ) ) ;
#30 = PRESENTATION_LAYER_ASSIGNMENT (  '', '', ( #147 ) ) ;
#31 = SURFACE_SIDE_STYLE ('',( #90 ) ) ;
#32 = EDGE_LOOP ( 'NONE', ( #111, #58, #7, #23 ) ) ;
#33 =( NAMED_UNIT ( * ) SI_UNIT ( $, .STERADIAN. ) SOLID_ANGLE_UNIT ( ) );
#34 = ADVANCED_FACE ( 'NONE', ( #75 ), #190, .F. ) ;
#35 = EDGE_CURVE ( 'NONE', #202, #25, #71, .T. ) ;
#36 = DIRECTION ( 'NONE',  ( 1.000000000000000000, -0.0000000000000000000, 4.534563076143590500E-016 ) ) ;
#37 = DIRECTION ( 'NONE',  ( -6.123233995736766000E-017, -0.0000000000000000000, -1.000000000000000000 ) ) ;
#38 = FACE_OUTER_BOUND ( 'NONE', #32, .T. ) ;
#39 = CARTESIAN_POINT ( 'NONE',  ( -9.759999999999999800, 12.00000000000000000, 5.000000000000000000 ) ) ;
#40 = LINE ( 'NONE', #91, #199 ) ;
#41 = DIRECTION ( 'NONE',  ( 4.534563076143590500E-016, 0.0000000000000000000, -1.000000000000000000 ) ) ;
#42 = PLANE ( 'NONE',  #122 ) ;
#43 = AXIS2_PLACEMENT_3D ( 'NONE', #14, #131, #129 ) ;
#44 = PRODUCT ( '155339', '155339', '', ( #117 ) ) ;
#45 = ORIENTED_EDGE ( 'NONE', *, *, #35, .F. ) ;
#46 =( GEOMETRIC_REPRESENTATION_CONTEXT ( 3 ) GLOBAL_UNCERTAINTY_ASSIGNED_CONTEXT ( ( #166 ) ) GLOBAL_UNIT_ASSIGNED_CONTEXT ( ( #59, #12, #160 ) ) REPRESENTATION_CONTEXT ( 'NONE', 'WORKASPACE' ) );
#47 = FACE_OUTER_BOUND ( 'NONE', #82, .T. ) ;
#48 = AXIS2_PLACEMENT_3D ( 'NONE', #154, #6, #85 ) ;
#49 = ORIENTED_EDGE ( 'NONE', *, *, #103, .F. ) ;
#50 = CARTESIAN_POINT ( 'NONE',  ( 0.0000000000000000000, 0.0000000000000000000, 0.0000000000000000000 ) ) ;
#51 = ADVANCED_FACE ( 'NONE', ( #62 ), #128, .F. ) ;
#52 = EDGE_LOOP ( 'NONE', ( #192, #181, #87, #177 ) ) ;
#53 = ORIENTED_EDGE ( 'NONE', *, *, #95, .F. ) ;
#54 = LINE ( 'NONE', #118, #126 ) ;
#55 = LINE ( 'NONE', #99, #173 ) ;
#56 = FILL_AREA_STYLE_COLOUR ( '', #157 ) ;
#57 = AXIS2_PLACEMENT_3D ( 'NONE', #137, #174, #189 ) ;
#58 = ORIENTED_EDGE ( 'NONE', *, *, #8, .T. ) ;
#59 =( LENGTH_UNIT ( ) NAMED_UNIT ( * ) SI_UNIT ( .MILLI., .METRE. ) );
#60 = DIRECTION ( 'NONE',  ( -0.0000000000000000000, -1.000000000000000000, -0.0000000000000000000 ) ) ;
#61 = ADVANCED_BREP_SHAPE_REPRESENTATION ( '155339', ( #70, #92 ), #18 ) ;
#62 = FACE_OUTER_BOUND ( 'NONE', #86, .T. ) ;
#63 = PRODUCT_DEFINITION_FORMATION_WITH_SPECIFIED_SOURCE ( 'ÈÎºÎ', '', #44, .NOT_KNOWN. ) ;
#64 = FILL_AREA_STYLE_COLOUR ( '', #203 ) ;
#65 = APPLICATION_CONTEXT ( 'automotive_design' ) ;
#66 = DIRECTION ( 'NONE',  ( 0.0000000000000000000, 1.000000000000000000, 0.0000000000000000000 ) ) ;
#67 = DIRECTION ( 'NONE',  ( -0.0000000000000000000, -1.000000000000000000, -0.0000000000000000000 ) ) ;
#68 = ADVANCED_FACE ( 'NONE', ( #73 ), #78, .F. ) ;
#69 = SURFACE_STYLE_USAGE ( .BOTH. , #31 ) ;
#70 = MANIFOLD_SOLID_BREP ( 'Í¹Ì¨-À­Éì1', #186 ) ;
#71 = LINE ( 'NONE', #149, #148 ) ;
#72 = VECTOR ( 'NONE', #178, 1000.000000000000000 ) ;
#73 = FACE_OUTER_BOUND ( 'NONE', #165, .T. ) ;
#74 = ORIENTED_EDGE ( 'NONE', *, *, #76, .T. ) ;
#75 = FACE_OUTER_BOUND ( 'NONE', #52, .T. ) ;
#76 = EDGE_CURVE ( 'NONE', #25, #156, #101, .T. ) ;
#77 = ORIENTED_EDGE ( 'NONE', *, *, #169, .F. ) ;
#78 = PLANE ( 'NONE',  #193 ) ;
#79 =( NAMED_UNIT ( * ) PLANE_ANGLE_UNIT ( ) SI_UNIT ( $, .RADIAN. ) );
#80 = UNCERTAINTY_MEASURE_WITH_UNIT (LENGTH_MEASURE( 1.000000000000000100E-005 ), #16, 'distance_accuracy_value', 'NONE');
#81 = VECTOR ( 'NONE', #140, 1000.000000000000000 ) ;
#82 = EDGE_LOOP ( 'NONE', ( #172, #53, #151, #204 ) ) ;
#83 = DIRECTION ( 'NONE',  ( -1.000000000000000000, 0.0000000000000000000, 6.123233995736766000E-017 ) ) ;
#84 = PLANE ( 'NONE',  #57 ) ;
#85 = DIRECTION ( 'NONE',  ( 0.0000000000000000000, 0.0000000000000000000, 1.000000000000000000 ) ) ;
#86 = EDGE_LOOP ( 'NONE', ( #145, #77, #155, #167 ) ) ;
#87 = ORIENTED_EDGE ( 'NONE', *, *, #194, .F. ) ;
#88 = AXIS2_PLACEMENT_3D ( 'NONE', #201, #83, #185 ) ;
#89 = CARTESIAN_POINT ( 'NONE',  ( 0.0000000000000000000, 12.00000000000000000, 0.0000000000000000000 ) ) ;
#90 = SURFACE_STYLE_FILL_AREA ( #96 ) ;
#91 = CARTESIAN_POINT ( 'NONE',  ( 0.0000000000000000000, 12.00000000000000000, 0.0000000000000000000 ) ) ;
#92 = AXIS2_PLACEMENT_3D ( 'NONE', #24, #28, #188 ) ;
#93 = ORIENTED_EDGE ( 'NONE', *, *, #164, .F. ) ;
#94 = FACE_OUTER_BOUND ( 'NONE', #144, .T. ) ;
#95 = EDGE_CURVE ( 'NONE', #134, #25, #54, .T. ) ;
#96 = FILL_AREA_STYLE ('',( #56 ) ) ;
#97 = ADVANCED_FACE ( 'NONE', ( #47 ), #42, .F. ) ;
#98 = ORIENTED_EDGE ( 'NONE', *, *, #161, .F. ) ;
#99 = CARTESIAN_POINT ( 'NONE',  ( 6.123233995736766300E-016, 12.00000000000000000, 10.00000000000000000 ) ) ;
#100 = LINE ( 'NONE', #19, #158 ) ;
#101 = LINE ( 'NONE', #21, #170 ) ;
#102 = APPLICATION_PROTOCOL_DEFINITION ( 'draft international standard', 'automotive_design', 1998, #125 ) ;
#103 = EDGE_CURVE ( 'NONE', #134, #105, #119, .T. ) ;
#104 = CIRCLE ( 'NONE', #10, 7.760000000000000700 ) ;
#105 = VERTEX_POINT ( 'NONE', #89 ) ;
#106 =( NAMED_UNIT ( * ) SI_UNIT ( $, .STERADIAN. ) SOLID_ANGLE_UNIT ( ) );
#107 = VECTOR ( 'NONE', #123, 1000.000000000000000 ) ;
#108 = DIRECTION ( 'NONE',  ( -1.000000000000000000, 0.0000000000000000000, 4.534563076143589500E-016 ) ) ;
#109 = ADVANCED_FACE ( 'NONE', ( #38 ), #84, .T. ) ;
#110 = ORIENTED_EDGE ( 'NONE', *, *, #95, .T. ) ;
#111 = ORIENTED_EDGE ( 'NONE', *, *, #194, .T. ) ;
#112 = DIRECTION ( 'NONE',  ( 0.0000000000000000000, -0.0000000000000000000, 1.000000000000000000 ) ) ;
#113 = PRESENTATION_STYLE_ASSIGNMENT (( #141 ) ) ;
#114 = DIRECTION ( 'NONE',  ( 1.000000000000000000, 0.0000000000000000000, -4.534563076143589500E-016 ) ) ;
#115 = PLANE ( 'NONE',  #88 ) ;
#116 = CARTESIAN_POINT ( 'NONE',  ( 6.123233995736766300E-016, 12.00000000000000000, 10.00000000000000000 ) ) ;
#117 = PRODUCT_CONTEXT ( 'NONE', #65, 'mechanical' ) ;
#118 = CARTESIAN_POINT ( 'NONE',  ( 6.123233995736766300E-016, 12.00000000000000000, 10.00000000000000000 ) ) ;
#119 = LINE ( 'NONE', #142, #81 ) ;
#120 = SURFACE_STYLE_FILL_AREA ( #9 ) ;
#121 =( GEOMETRIC_REPRESENTATION_CONTEXT ( 3 ) GLOBAL_UNCERTAINTY_ASSIGNED_CONTEXT ( ( #80 ) ) GLOBAL_UNIT_ASSIGNED_CONTEXT ( ( #16, #1, #106 ) ) REPRESENTATION_CONTEXT ( 'NONE', 'WORKASPACE' ) );
#122 = AXIS2_PLACEMENT_3D ( 'NONE', #139, #41, #182 ) ;
#123 = DIRECTION ( 'NONE',  ( -0.0000000000000000000, -1.000000000000000000, -0.0000000000000000000 ) ) ;
#124 = MECHANICAL_DESIGN_GEOMETRIC_PRESENTATION_REPRESENTATION (  '', ( #147 ), #46 ) ;
#125 = APPLICATION_CONTEXT ( 'automotive_design' ) ;
#126 = VECTOR ( 'NONE', #67, 1000.000000000000000 ) ;
#127 = VERTEX_POINT ( 'NONE', #146 ) ;
#128 = CYLINDRICAL_SURFACE ( 'NONE', #43, 7.759999999999999800 ) ;
#129 = DIRECTION ( 'NONE',  ( 0.0000000000000000000, 0.0000000000000000000, -1.000000000000000000 ) ) ;
#130 = STYLED_ITEM ( 'NONE', ( #5 ), #61 ) ;
#131 = DIRECTION ( 'NONE',  ( -0.0000000000000000000, -1.000000000000000000, -0.0000000000000000000 ) ) ;
#132 = LINE ( 'NONE', #187, #107 ) ;
#133 =( LENGTH_UNIT ( ) NAMED_UNIT ( * ) SI_UNIT ( .MILLI., .METRE. ) );
#134 = VERTEX_POINT ( 'NONE', #116 ) ;
#135 = ORIENTED_EDGE ( 'NONE', *, *, #183, .F. ) ;
#136 = CARTESIAN_POINT ( 'NONE',  ( -3.825558155984675000, 12.00000000000000000, 9.999999999999998200 ) ) ;
#137 = CARTESIAN_POINT ( 'NONE',  ( -9.759999999999999800, 12.00000000000000000, 5.000000000000000000 ) ) ;
#138 = SHAPE_DEFINITION_REPRESENTATION ( #26, #61 ) ;
#139 = CARTESIAN_POINT ( 'NONE',  ( 6.123233995736766300E-016, 12.00000000000000000, 10.00000000000000000 ) ) ;
#140 = DIRECTION ( 'NONE',  ( -6.123233995736766000E-017, -0.0000000000000000000, -1.000000000000000000 ) ) ;
#141 = SURFACE_STYLE_USAGE ( .BOTH. , #195 ) ;
#142 = CARTESIAN_POINT ( 'NONE',  ( 0.0000000000000000000, 12.00000000000000000, 0.0000000000000000000 ) ) ;
#143 = DIRECTION ( 'NONE',  ( -1.000000000000000000, 0.0000000000000000000, 4.534563076143589500E-016 ) ) ;
#144 = EDGE_LOOP ( 'NONE', ( #74, #93, #49, #110 ) ) ;
#145 = ORIENTED_EDGE ( 'NONE', *, *, #183, .T. ) ;
#146 = CARTESIAN_POINT ( 'NONE',  ( -3.825558155984674500, 12.00000000000000000, 1.734723475976807100E-015 ) ) ;
#147 = STYLED_ITEM ( 'NONE', ( #113 ), #70 ) ;
#148 = VECTOR ( 'NONE', #36, 1000.000000000000000 ) ;
#149 = CARTESIAN_POINT ( 'NONE',  ( 6.123233995736766300E-016, 0.0000000000000000000, 10.00000000000000000 ) ) ;
#150 = PRODUCT_DEFINITION_CONTEXT ( 'detailed design', #125, 'design' ) ;
#151 = ORIENTED_EDGE ( 'NONE', *, *, #200, .F. ) ;
#152 = VERTEX_POINT ( 'NONE', #136 ) ;
#153 = PRODUCT_DEFINITION ( 'Î´Öª', '', #63, #150 ) ;
#154 = CARTESIAN_POINT ( 'NONE',  ( -9.759999999999999800, 0.0000000000000000000, 5.000000000000000000 ) ) ;
#155 = ORIENTED_EDGE ( 'NONE', *, *, #8, .F. ) ;
#156 = VERTEX_POINT ( 'NONE', #4 ) ;
#157 = COLOUR_RGB ( '',1.000000000000000000, 1.000000000000000000, 1.000000000000000000 ) ;
#158 = VECTOR ( 'NONE', #11, 1000.000000000000000 ) ;
#159 = VERTEX_POINT ( 'NONE', #20 ) ;
#160 =( NAMED_UNIT ( * ) SI_UNIT ( $, .STERADIAN. ) SOLID_ANGLE_UNIT ( ) );
#161 = EDGE_CURVE ( 'NONE', #156, #159, #163, .T. ) ;
#162 = DIRECTION ( 'NONE',  ( 0.0000000000000000000, 0.0000000000000000000, 1.000000000000000000 ) ) ;
#163 = LINE ( 'NONE', #50, #171 ) ;
#164 = EDGE_CURVE ( 'NONE', #105, #156, #132, .T. ) ;
#165 = EDGE_LOOP ( 'NONE', ( #98, #176, #45, #135 ) ) ;
#166 = UNCERTAINTY_MEASURE_WITH_UNIT (LENGTH_MEASURE( 1.000000000000000100E-005 ), #59, 'distance_accuracy_value', 'NONE');
#167 = ORIENTED_EDGE ( 'NONE', *, *, #198, .T. ) ;
#168 = DIRECTION ( 'NONE',  ( 1.000000000000000000, -0.0000000000000000000, 4.534563076143590500E-016 ) ) ;
#169 = EDGE_CURVE ( 'NONE', #152, #202, #100, .T. ) ;
#170 = VECTOR ( 'NONE', #37, 1000.000000000000000 ) ;
#171 = VECTOR ( 'NONE', #108, 1000.000000000000000 ) ;
#172 = ORIENTED_EDGE ( 'NONE', *, *, #35, .T. ) ;
#173 = VECTOR ( 'NONE', #168, 1000.000000000000000 ) ;
#174 = DIRECTION ( 'NONE',  ( 0.0000000000000000000, 1.000000000000000000, 0.0000000000000000000 ) ) ;
#175 = CARTESIAN_POINT ( 'NONE',  ( 0.0000000000000000000, 12.00000000000000000, 0.0000000000000000000 ) ) ;
#176 = ORIENTED_EDGE ( 'NONE', *, *, #76, .F. ) ;
#177 = ORIENTED_EDGE ( 'NONE', *, *, #164, .T. ) ;
#178 = DIRECTION ( 'NONE',  ( -0.0000000000000000000, -1.000000000000000000, -0.0000000000000000000 ) ) ;
#179 = APPLICATION_PROTOCOL_DEFINITION ( 'draft international standard', 'automotive_design', 1998, #65 ) ;
#180 = CARTESIAN_POINT ( 'NONE',  ( -3.825558155984675000, 0.0000000000000000000, 9.999999999999998200 ) ) ;
#181 = ORIENTED_EDGE ( 'NONE', *, *, #198, .F. ) ;
#182 = DIRECTION ( 'NONE',  ( -1.000000000000000000, 0.0000000000000000000, -4.534563076143590500E-016 ) ) ;
#183 = EDGE_CURVE ( 'NONE', #159, #202, #15, .T. ) ;
#184 = CARTESIAN_POINT ( 'NONE',  ( -3.825558155984674500, 12.00000000000000000, 1.734723475976807100E-015 ) ) ;
#185 = DIRECTION ( 'NONE',  ( 6.123233995736766000E-017, 0.0000000000000000000, 1.000000000000000000 ) ) ;
#186 = CLOSED_SHELL ( 'NONE', ( #34, #51, #97, #27, #109, #68 ) ) ;
#187 = CARTESIAN_POINT ( 'NONE',  ( 0.0000000000000000000, 12.00000000000000000, 0.0000000000000000000 ) ) ;
#188 = DIRECTION ( 'NONE',  ( 1.000000000000000000, 0.0000000000000000000, 0.0000000000000000000 ) ) ;
#189 = DIRECTION ( 'NONE',  ( 0.0000000000000000000, -0.0000000000000000000, 1.000000000000000000 ) ) ;
#190 = PLANE ( 'NONE',  #13 ) ;
#191 = CARTESIAN_POINT ( 'NONE',  ( 6.123233995736766300E-016, 0.0000000000000000000, 10.00000000000000000 ) ) ;
#192 = ORIENTED_EDGE ( 'NONE', *, *, #161, .T. ) ;
#193 = AXIS2_PLACEMENT_3D ( 'NONE', #29, #66, #112 ) ;
#194 = EDGE_CURVE ( 'NONE', #105, #127, #40, .T. ) ;
#195 = SURFACE_SIDE_STYLE ('',( #120 ) ) ;
#196 = PRESENTATION_LAYER_ASSIGNMENT (  '', '', ( #130 ) ) ;
#197 = LINE ( 'NONE', #184, #72 ) ;
#198 = EDGE_CURVE ( 'NONE', #127, #159, #197, .T. ) ;
#199 = VECTOR ( 'NONE', #143, 1000.000000000000000 ) ;
#200 = EDGE_CURVE ( 'NONE', #152, #134, #55, .T. ) ;
#201 = CARTESIAN_POINT ( 'NONE',  ( 0.0000000000000000000, 12.00000000000000000, 0.0000000000000000000 ) ) ;
#202 = VERTEX_POINT ( 'NONE', #180 ) ;
#203 = COLOUR_RGB ( '',1.000000000000000000, 1.000000000000000000, 1.000000000000000000 ) ;
#204 = ORIENTED_EDGE ( 'NONE', *, *, #169, .T. ) ;
ENDSEC;
END-ISO-10303-21;
