ISO-10303-21;
HEADER;
FILE_DESCRIPTION (( 'STEP AP214' ),
    '1' );
FILE_NAME ('155333.STEP',
    '2019-06-27T03:08:29',
    ( 'user' ),
    ( 'Î¢ÈíÖÐ¹ú' ),
    'SwSTEP 2.0',
    'SolidWorks 2016',
    '' );
FILE_SCHEMA (( 'AUTOMOTIVE_DESIGN' ));
ENDSEC;

DATA;
#1 = PLANE ( 'NONE',  #33 ) ;
#2 = CARTESIAN_POINT ( 'NONE',  ( -5.000000000000000000, 0.0000000000000000000, 2.000000000000000400 ) ) ;
#3 = CARTESIAN_POINT ( 'NONE',  ( -5.000000000000000000, 8.000000000000000000, 2.000000000000000400 ) ) ;
#4 = EDGE_LOOP ( 'NONE', ( #111, #20, #190, #30 ) ) ;
#5 =( GEOMETRIC_REPRESENTATION_CONTEXT ( 3 ) GLOBAL_UNCERTAINTY_ASSIGNED_CONTEXT ( ( #89 ) ) GLOBAL_UNIT_ASSIGNED_CONTEXT ( ( #129, #146, #23 ) ) REPRESENTATION_CONTEXT ( 'NONE', 'WORKASPACE' ) );
#6 = DIRECTION ( 'NONE',  ( 0.0000000000000000000, 0.0000000000000000000, -1.000000000000000000 ) ) ;
#7 = ADVANCED_FACE ( 'NONE', ( #48 ), #165, .T. ) ;
#8 = APPLICATION_PROTOCOL_DEFINITION ( 'draft international standard', 'automotive_design', 1998, #29 ) ;
#9 = APPLICATION_CONTEXT ( 'automotive_design' ) ;
#10 = CIRCLE ( 'NONE', #43, 3.000000000000000400 ) ;
#11 = EDGE_CURVE ( 'NONE', #113, #199, #96, .T. ) ;
#12 = AXIS2_PLACEMENT_3D ( 'NONE', #181, #99, #144 ) ;
#13 = ORIENTED_EDGE ( 'NONE', *, *, #145, .F. ) ;
#14 = ADVANCED_BREP_SHAPE_REPRESENTATION ( '155333', ( #19, #156 ), #176 ) ;
#15 = ORIENTED_EDGE ( 'NONE', *, *, #107, .T. ) ;
#16 = PRODUCT ( '155333', '155333', '', ( #109 ) ) ;
#17 = PRODUCT_DEFINITION_SHAPE ( 'NONE', 'NONE',  #122 ) ;
#18 = CARTESIAN_POINT ( 'NONE',  ( 0.0000000000000000000, 8.000000000000000000, 4.000000000000000000 ) ) ;
#19 = MANIFOLD_SOLID_BREP ( 'Í¹Ì¨-À­Éì1', #195 ) ;
#20 = ORIENTED_EDGE ( 'NONE', *, *, #182, .F. ) ;
#21 = SURFACE_STYLE_USAGE ( .BOTH. , #53 ) ;
#22 = SURFACE_STYLE_FILL_AREA ( #135 ) ;
#23 =( NAMED_UNIT ( * ) SI_UNIT ( $, .STERADIAN. ) SOLID_ANGLE_UNIT ( ) );
#24 = CARTESIAN_POINT ( 'NONE',  ( 0.0000000000000000000, 8.000000000000000000, 4.000000000000000000 ) ) ;
#25 = CARTESIAN_POINT ( 'NONE',  ( 0.0000000000000000000, 8.000000000000000000, 0.0000000000000000000 ) ) ;
#26 = DIRECTION ( 'NONE',  ( 0.0000000000000000000, 0.0000000000000000000, 1.000000000000000000 ) ) ;
#27 = DIRECTION ( 'NONE',  ( 0.0000000000000000000, 0.0000000000000000000, 1.000000000000000000 ) ) ;
#28 = ADVANCED_FACE ( 'NONE', ( #65 ), #141, .F. ) ;
#29 = APPLICATION_CONTEXT ( 'automotive_design' ) ;
#30 = ORIENTED_EDGE ( 'NONE', *, *, #35, .T. ) ;
#31 = MECHANICAL_DESIGN_GEOMETRIC_PRESENTATION_REPRESENTATION (  '', ( #203 ), #47 ) ;
#32 = VECTOR ( 'NONE', #67, 1000.000000000000000 ) ;
#33 = AXIS2_PLACEMENT_3D ( 'NONE', #25, #39, #148 ) ;
#34 = ORIENTED_EDGE ( 'NONE', *, *, #82, .F. ) ;
#35 = EDGE_CURVE ( 'NONE', #199, #142, #97, .T. ) ;
#36 = LINE ( 'NONE', #193, #157 ) ;
#37 = ORIENTED_EDGE ( 'NONE', *, *, #68, .F. ) ;
#38 = DIRECTION ( 'NONE',  ( -0.0000000000000000000, -0.0000000000000000000, -1.000000000000000000 ) ) ;
#39 = DIRECTION ( 'NONE',  ( 1.566841970330795900E-016, -0.0000000000000000000, 1.000000000000000000 ) ) ;
#40 = ORIENTED_EDGE ( 'NONE', *, *, #35, .F. ) ;
#41 = SURFACE_SIDE_STYLE ('',( #22 ) ) ;
#42 = SURFACE_STYLE_FILL_AREA ( #130 ) ;
#43 = AXIS2_PLACEMENT_3D ( 'NONE', #2, #117, #26 ) ;
#44 = AXIS2_PLACEMENT_3D ( 'NONE', #3, #118, #27 ) ;
#45 = VECTOR ( 'NONE', #72, 1000.000000000000000 ) ;
#46 = EDGE_CURVE ( 'NONE', #113, #77, #36, .T. ) ;
#47 =( GEOMETRIC_REPRESENTATION_CONTEXT ( 3 ) GLOBAL_UNCERTAINTY_ASSIGNED_CONTEXT ( ( #104 ) ) GLOBAL_UNIT_ASSIGNED_CONTEXT ( ( #78, #57, #175 ) ) REPRESENTATION_CONTEXT ( 'NONE', 'WORKASPACE' ) );
#48 = FACE_OUTER_BOUND ( 'NONE', #100, .T. ) ;
#49 = AXIS2_PLACEMENT_3D ( 'NONE', #55, #187, #91 ) ;
#50 = PRODUCT_DEFINITION_FORMATION_WITH_SPECIFIED_SOURCE ( 'ÈÎºÎ', '', #16, .NOT_KNOWN. ) ;
#51 = CARTESIAN_POINT ( 'NONE',  ( 0.0000000000000000000, 8.000000000000000000, 0.0000000000000000000 ) ) ;
#52 = VECTOR ( 'NONE', #170, 1000.000000000000000 ) ;
#53 = SURFACE_SIDE_STYLE ('',( #42 ) ) ;
#54 = ORIENTED_EDGE ( 'NONE', *, *, #182, .T. ) ;
#55 = CARTESIAN_POINT ( 'NONE',  ( -5.000000000000000000, 0.0000000000000000000, 2.000000000000000400 ) ) ;
#56 = FILL_AREA_STYLE_COLOUR ( '', #123 ) ;
#57 =( NAMED_UNIT ( * ) PLANE_ANGLE_UNIT ( ) SI_UNIT ( $, .RADIAN. ) );
#58 = ORIENTED_EDGE ( 'NONE', *, *, #46, .T. ) ;
#59 = CIRCLE ( 'NONE', #44, 3.000000000000000400 ) ;
#60 = AXIS2_PLACEMENT_3D ( 'NONE', #18, #128, #166 ) ;
#61 = EDGE_CURVE ( 'NONE', #137, #180, #194, .T. ) ;
#62 = ORIENTED_EDGE ( 'NONE', *, *, #107, .F. ) ;
#63 = PRESENTATION_STYLE_ASSIGNMENT (( #155 ) ) ;
#64 = ORIENTED_EDGE ( 'NONE', *, *, #81, .F. ) ;
#65 = FACE_OUTER_BOUND ( 'NONE', #120, .T. ) ;
#66 = ORIENTED_EDGE ( 'NONE', *, *, #46, .F. ) ;
#67 = DIRECTION ( 'NONE',  ( -0.0000000000000000000, -1.000000000000000000, -0.0000000000000000000 ) ) ;
#68 = EDGE_CURVE ( 'NONE', #77, #142, #110, .T. ) ;
#69 = DIRECTION ( 'NONE',  ( -0.0000000000000000000, -0.0000000000000000000, -1.000000000000000000 ) ) ;
#70 = DIRECTION ( 'NONE',  ( 1.000000000000000000, -0.0000000000000000000, -0.0000000000000000000 ) ) ;
#71 = PRODUCT_DEFINITION_CONTEXT ( 'detailed design', #9, 'design' ) ;
#72 = DIRECTION ( 'NONE',  ( -1.000000000000000000, 0.0000000000000000000, 1.566841970330795900E-016 ) ) ;
#73 = CARTESIAN_POINT ( 'NONE',  ( -2.763932022500210600, 8.000000000000000000, 0.0000000000000000000 ) ) ;
#74 = EDGE_CURVE ( 'NONE', #137, #113, #161, .T. ) ;
#75 = CARTESIAN_POINT ( 'NONE',  ( 0.0000000000000000000, 8.000000000000000000, 0.0000000000000000000 ) ) ;
#76 = ADVANCED_FACE ( 'NONE', ( #177 ), #1, .F. ) ;
#77 = VERTEX_POINT ( 'NONE', #185 ) ;
#78 =( LENGTH_UNIT ( ) NAMED_UNIT ( * ) SI_UNIT ( .MILLI., .METRE. ) );
#79 = COLOUR_RGB ( '',1.000000000000000000, 1.000000000000000000, 1.000000000000000000 ) ;
#80 = VERTEX_POINT ( 'NONE', #168 ) ;
#81 = EDGE_CURVE ( 'NONE', #98, #180, #10, .T. ) ;
#82 = EDGE_CURVE ( 'NONE', #180, #77, #198, .T. ) ;
#83 = VECTOR ( 'NONE', #69, 1000.000000000000000 ) ;
#84 = ORIENTED_EDGE ( 'NONE', *, *, #61, .F. ) ;
#85 = DIRECTION ( 'NONE',  ( -0.0000000000000000000, -1.000000000000000000, -0.0000000000000000000 ) ) ;
#86 = CARTESIAN_POINT ( 'NONE',  ( 0.0000000000000000000, 0.0000000000000000000, 0.0000000000000000000 ) ) ;
#87 = CARTESIAN_POINT ( 'NONE',  ( 0.0000000000000000000, 8.000000000000000000, 0.0000000000000000000 ) ) ;
#88 = CARTESIAN_POINT ( 'NONE',  ( -2.763932022500210200, 8.000000000000000000, 4.000000000000000000 ) ) ;
#89 = UNCERTAINTY_MEASURE_WITH_UNIT (LENGTH_MEASURE( 1.000000000000000100E-005 ), #129, 'distance_accuracy_value', 'NONE');
#90 = EDGE_LOOP ( 'NONE', ( #13, #37, #34, #64 ) ) ;
#91 = DIRECTION ( 'NONE',  ( 0.0000000000000000000, -0.0000000000000000000, 1.000000000000000000 ) ) ;
#92 = ADVANCED_FACE ( 'NONE', ( #126 ), #101, .F. ) ;
#93 =( NAMED_UNIT ( * ) PLANE_ANGLE_UNIT ( ) SI_UNIT ( $, .RADIAN. ) );
#94 = DIRECTION ( 'NONE',  ( 0.0000000000000000000, 0.0000000000000000000, 1.000000000000000000 ) ) ;
#95 = EDGE_CURVE ( 'NONE', #199, #80, #138, .T. ) ;
#96 = LINE ( 'NONE', #51, #189 ) ;
#97 = LINE ( 'NONE', #184, #32 ) ;
#98 = VERTEX_POINT ( 'NONE', #150 ) ;
#99 = DIRECTION ( 'NONE',  ( 0.0000000000000000000, 1.000000000000000000, 0.0000000000000000000 ) ) ;
#100 = EDGE_LOOP ( 'NONE', ( #164, #15, #171, #124 ) ) ;
#101 = PLANE ( 'NONE',  #159 ) ;
#102 = CARTESIAN_POINT ( 'NONE',  ( 0.0000000000000000000, 8.000000000000000000, 4.000000000000000000 ) ) ;
#103 = CARTESIAN_POINT ( 'NONE',  ( 0.0000000000000000000, 0.0000000000000000000, 4.000000000000000000 ) ) ;
#104 = UNCERTAINTY_MEASURE_WITH_UNIT (LENGTH_MEASURE( 1.000000000000000100E-005 ), #78, 'distance_accuracy_value', 'NONE');
#105 = CARTESIAN_POINT ( 'NONE',  ( 0.0000000000000000000, 0.0000000000000000000, 0.0000000000000000000 ) ) ;
#106 = DIRECTION ( 'NONE',  ( -0.0000000000000000000, -1.000000000000000000, -0.0000000000000000000 ) ) ;
#107 = EDGE_CURVE ( 'NONE', #80, #137, #59, .T. ) ;
#108 = ORIENTED_EDGE ( 'NONE', *, *, #11, .F. ) ;
#109 = PRODUCT_CONTEXT ( 'NONE', #29, 'mechanical' ) ;
#110 = LINE ( 'NONE', #86, #83 ) ;
#111 = ORIENTED_EDGE ( 'NONE', *, *, #145, .T. ) ;
#112 = VECTOR ( 'NONE', #70, 1000.000000000000000 ) ;
#113 = VERTEX_POINT ( 'NONE', #24 ) ;
#114 = DIRECTION ( 'NONE',  ( 0.0000000000000000000, 0.0000000000000000000, 1.000000000000000000 ) ) ;
#115 = CYLINDRICAL_SURFACE ( 'NONE', #167, 3.000000000000000000 ) ;
#116 = DIRECTION ( 'NONE',  ( 1.000000000000000000, -0.0000000000000000000, -0.0000000000000000000 ) ) ;
#117 = DIRECTION ( 'NONE',  ( -0.0000000000000000000, -1.000000000000000000, -0.0000000000000000000 ) ) ;
#118 = DIRECTION ( 'NONE',  ( -0.0000000000000000000, -1.000000000000000000, -0.0000000000000000000 ) ) ;
#119 = CARTESIAN_POINT ( 'NONE',  ( -5.000000000000000000, 8.000000000000000000, 2.000000000000000400 ) ) ;
#120 = EDGE_LOOP ( 'NONE', ( #160, #66, #125, #192 ) ) ;
#121 = APPLICATION_PROTOCOL_DEFINITION ( 'draft international standard', 'automotive_design', 1998, #9 ) ;
#122 = PRODUCT_DEFINITION ( 'Î´Öª', '', #50, #71 ) ;
#123 = COLOUR_RGB ( '',1.000000000000000000, 1.000000000000000000, 1.000000000000000000 ) ;
#124 = ORIENTED_EDGE ( 'NONE', *, *, #11, .T. ) ;
#125 = ORIENTED_EDGE ( 'NONE', *, *, #74, .F. ) ;
#126 = FACE_OUTER_BOUND ( 'NONE', #188, .T. ) ;
#127 = EDGE_LOOP ( 'NONE', ( #178, #84, #62, #54 ) ) ;
#128 = DIRECTION ( 'NONE',  ( 0.0000000000000000000, 0.0000000000000000000, -1.000000000000000000 ) ) ;
#129 =( LENGTH_UNIT ( ) NAMED_UNIT ( * ) SI_UNIT ( .MILLI., .METRE. ) );
#130 = FILL_AREA_STYLE ('',( #202 ) ) ;
#131 = FACE_OUTER_BOUND ( 'NONE', #90, .T. ) ;
#132 = DIRECTION ( 'NONE',  ( -0.0000000000000000000, -1.000000000000000000, -0.0000000000000000000 ) ) ;
#133 = DIRECTION ( 'NONE',  ( -1.000000000000000000, 0.0000000000000000000, 1.566841970330795900E-016 ) ) ;
#134 = CARTESIAN_POINT ( 'NONE',  ( -2.763932022500210200, 0.0000000000000000000, 4.000000000000000000 ) ) ;
#135 = FILL_AREA_STYLE ('',( #56 ) ) ;
#136 = PRESENTATION_LAYER_ASSIGNMENT (  '', '', ( #203 ) ) ;
#137 = VERTEX_POINT ( 'NONE', #88 ) ;
#138 = LINE ( 'NONE', #169, #45 ) ;
#139 = MECHANICAL_DESIGN_GEOMETRIC_PRESENTATION_REPRESENTATION (  '', ( #140 ), #5 ) ;
#140 = STYLED_ITEM ( 'NONE', ( #200 ), #19 ) ;
#141 = PLANE ( 'NONE',  #60 ) ;
#142 = VERTEX_POINT ( 'NONE', #105 ) ;
#143 = VECTOR ( 'NONE', #133, 1000.000000000000000 ) ;
#144 = DIRECTION ( 'NONE',  ( 0.0000000000000000000, -0.0000000000000000000, 1.000000000000000000 ) ) ;
#145 = EDGE_CURVE ( 'NONE', #142, #98, #183, .T. ) ;
#146 =( NAMED_UNIT ( * ) PLANE_ANGLE_UNIT ( ) SI_UNIT ( $, .RADIAN. ) );
#147 = CARTESIAN_POINT ( 'NONE',  ( -2.763932022500210200, 8.000000000000000000, 4.000000000000000000 ) ) ;
#148 = DIRECTION ( 'NONE',  ( 1.000000000000000000, 0.0000000000000000000, -1.566841970330795900E-016 ) ) ;
#149 = LINE ( 'NONE', #73, #52 ) ;
#150 = CARTESIAN_POINT ( 'NONE',  ( -2.763932022500210600, 0.0000000000000000000, 0.0000000000000000000 ) ) ;
#151 = PLANE ( 'NONE',  #49 ) ;
#152 = CARTESIAN_POINT ( 'NONE',  ( 0.0000000000000000000, 0.0000000000000000000, 0.0000000000000000000 ) ) ;
#153 = ADVANCED_FACE ( 'NONE', ( #131 ), #151, .F. ) ;
#154 = ORIENTED_EDGE ( 'NONE', *, *, #68, .T. ) ;
#155 = SURFACE_STYLE_USAGE ( .BOTH. , #41 ) ;
#156 = AXIS2_PLACEMENT_3D ( 'NONE', #152, #94, #197 ) ;
#157 = VECTOR ( 'NONE', #85, 1000.000000000000000 ) ;
#158 = PRODUCT_RELATED_PRODUCT_CATEGORY ( 'part', '', ( #16 ) ) ;
#159 = AXIS2_PLACEMENT_3D ( 'NONE', #87, #204, #114 ) ;
#160 = ORIENTED_EDGE ( 'NONE', *, *, #82, .T. ) ;
#161 = LINE ( 'NONE', #102, #172 ) ;
#162 = SHAPE_DEFINITION_REPRESENTATION ( #17, #14 ) ;
#163 = UNCERTAINTY_MEASURE_WITH_UNIT (LENGTH_MEASURE( 1.000000000000000100E-005 ), #174, 'distance_accuracy_value', 'NONE');
#164 = ORIENTED_EDGE ( 'NONE', *, *, #95, .T. ) ;
#165 = PLANE ( 'NONE',  #12 ) ;
#166 = DIRECTION ( 'NONE',  ( -1.000000000000000000, 0.0000000000000000000, -0.0000000000000000000 ) ) ;
#167 = AXIS2_PLACEMENT_3D ( 'NONE', #119, #106, #6 ) ;
#168 = CARTESIAN_POINT ( 'NONE',  ( -2.763932022500210600, 8.000000000000000000, 0.0000000000000000000 ) ) ;
#169 = CARTESIAN_POINT ( 'NONE',  ( 0.0000000000000000000, 8.000000000000000000, 0.0000000000000000000 ) ) ;
#170 = DIRECTION ( 'NONE',  ( -0.0000000000000000000, -1.000000000000000000, -0.0000000000000000000 ) ) ;
#171 = ORIENTED_EDGE ( 'NONE', *, *, #74, .T. ) ;
#172 = VECTOR ( 'NONE', #116, 1000.000000000000000 ) ;
#173 = ADVANCED_FACE ( 'NONE', ( #179 ), #115, .F. ) ;
#174 =( LENGTH_UNIT ( ) NAMED_UNIT ( * ) SI_UNIT ( .MILLI., .METRE. ) );
#175 =( NAMED_UNIT ( * ) SI_UNIT ( $, .STERADIAN. ) SOLID_ANGLE_UNIT ( ) );
#176 =( GEOMETRIC_REPRESENTATION_CONTEXT ( 3 ) GLOBAL_UNCERTAINTY_ASSIGNED_CONTEXT ( ( #163 ) ) GLOBAL_UNIT_ASSIGNED_CONTEXT ( ( #174, #93, #196 ) ) REPRESENTATION_CONTEXT ( 'NONE', 'WORKASPACE' ) );
#177 = FACE_OUTER_BOUND ( 'NONE', #4, .T. ) ;
#178 = ORIENTED_EDGE ( 'NONE', *, *, #81, .T. ) ;
#179 = FACE_OUTER_BOUND ( 'NONE', #127, .T. ) ;
#180 = VERTEX_POINT ( 'NONE', #134 ) ;
#181 = CARTESIAN_POINT ( 'NONE',  ( -5.000000000000000000, 8.000000000000000000, 2.000000000000000400 ) ) ;
#182 = EDGE_CURVE ( 'NONE', #80, #98, #149, .T. ) ;
#183 = LINE ( 'NONE', #186, #143 ) ;
#184 = CARTESIAN_POINT ( 'NONE',  ( 0.0000000000000000000, 8.000000000000000000, 0.0000000000000000000 ) ) ;
#185 = CARTESIAN_POINT ( 'NONE',  ( 0.0000000000000000000, 0.0000000000000000000, 4.000000000000000000 ) ) ;
#186 = CARTESIAN_POINT ( 'NONE',  ( 0.0000000000000000000, 0.0000000000000000000, 0.0000000000000000000 ) ) ;
#187 = DIRECTION ( 'NONE',  ( 0.0000000000000000000, 1.000000000000000000, 0.0000000000000000000 ) ) ;
#188 = EDGE_LOOP ( 'NONE', ( #154, #40, #108, #58 ) ) ;
#189 = VECTOR ( 'NONE', #38, 1000.000000000000000 ) ;
#190 = ORIENTED_EDGE ( 'NONE', *, *, #95, .F. ) ;
#191 = PRESENTATION_LAYER_ASSIGNMENT (  '', '', ( #140 ) ) ;
#192 = ORIENTED_EDGE ( 'NONE', *, *, #61, .T. ) ;
#193 = CARTESIAN_POINT ( 'NONE',  ( 0.0000000000000000000, 8.000000000000000000, 4.000000000000000000 ) ) ;
#194 = LINE ( 'NONE', #147, #201 ) ;
#195 = CLOSED_SHELL ( 'NONE', ( #76, #173, #28, #92, #7, #153 ) ) ;
#196 =( NAMED_UNIT ( * ) SI_UNIT ( $, .STERADIAN. ) SOLID_ANGLE_UNIT ( ) );
#197 = DIRECTION ( 'NONE',  ( 1.000000000000000000, 0.0000000000000000000, 0.0000000000000000000 ) ) ;
#198 = LINE ( 'NONE', #103, #112 ) ;
#199 = VERTEX_POINT ( 'NONE', #75 ) ;
#200 = PRESENTATION_STYLE_ASSIGNMENT (( #21 ) ) ;
#201 = VECTOR ( 'NONE', #132, 1000.000000000000000 ) ;
#202 = FILL_AREA_STYLE_COLOUR ( '', #79 ) ;
#203 = STYLED_ITEM ( 'NONE', ( #63 ), #14 ) ;
#204 = DIRECTION ( 'NONE',  ( -1.000000000000000000, 0.0000000000000000000, 0.0000000000000000000 ) ) ;
ENDSEC;
END-ISO-10303-21;
