ISO-10303-21;
HEADER;
FILE_DESCRIPTION (( 'STEP AP214' ),
    '1' );
FILE_NAME ('155347.STEP',
    '2019-06-28T03:16:16',
    ( 'user' ),
    ( 'Î¢ÈíÖÐ¹ú' ),
    'SwSTEP 2.0',
    'SolidWorks 2016',
    '' );
FILE_SCHEMA (( 'AUTOMOTIVE_DESIGN' ));
ENDSEC;

DATA;
#1 = DIRECTION ( 'NONE',  ( -6.123233995736766000E-017, -0.0000000000000000000, -1.000000000000000000 ) ) ;
#2 = EDGE_CURVE ( 'NONE', #17, #90, #10, .T. ) ;
#3 = UNCERTAINTY_MEASURE_WITH_UNIT (LENGTH_MEASURE( 1.000000000000000100E-005 ), #43, 'distance_accuracy_value', 'NONE');
#4 = EDGE_CURVE ( 'NONE', #135, #24, #142, .T. ) ;
#5 = CARTESIAN_POINT ( 'NONE',  ( 0.0000000000000000000, 20.00000000000000000, 0.0000000000000000000 ) ) ;
#6 = ORIENTED_EDGE ( 'NONE', *, *, #179, .T. ) ;
#7 = PRESENTATION_STYLE_ASSIGNMENT (( #19 ) ) ;
#8 = CARTESIAN_POINT ( 'NONE',  ( 0.0000000000000000000, 20.00000000000000000, 0.0000000000000000000 ) ) ;
#9 = ADVANCED_BREP_SHAPE_REPRESENTATION ( '155347', ( #166, #182 ), #63 ) ;
#10 = LINE ( 'NONE', #31, #91 ) ;
#11 = EDGE_CURVE ( 'NONE', #18, #135, #78, .T. ) ;
#12 =( NAMED_UNIT ( * ) SI_UNIT ( $, .STERADIAN. ) SOLID_ANGLE_UNIT ( ) );
#13 = CARTESIAN_POINT ( 'NONE',  ( 0.0000000000000000000, 0.0000000000000000000, 0.0000000000000000000 ) ) ;
#14 = CLOSED_SHELL ( 'NONE', ( #97, #36, #161, #29, #106, #30 ) ) ;
#15 =( GEOMETRIC_REPRESENTATION_CONTEXT ( 3 ) GLOBAL_UNCERTAINTY_ASSIGNED_CONTEXT ( ( #3 ) ) GLOBAL_UNIT_ASSIGNED_CONTEXT ( ( #43, #96, #45 ) ) REPRESENTATION_CONTEXT ( 'NONE', 'WORKASPACE' ) );
#16 = CARTESIAN_POINT ( 'NONE',  ( 0.0000000000000000000, 20.00000000000000000, 0.0000000000000000000 ) ) ;
#17 = VERTEX_POINT ( 'NONE', #46 ) ;
#18 = VERTEX_POINT ( 'NONE', #116 ) ;
#19 = SURFACE_STYLE_USAGE ( .BOTH. , #199 ) ;
#20 = STYLED_ITEM ( 'NONE', ( #184 ), #9 ) ;
#21 = EDGE_LOOP ( 'NONE', ( #152, #6, #68, #145 ) ) ;
#22 = PLANE ( 'NONE',  #119 ) ;
#23 = CARTESIAN_POINT ( 'NONE',  ( -54.63999999999999300, 20.00000000000000000, 10.00000000000001100 ) ) ;
#24 = VERTEX_POINT ( 'NONE', #193 ) ;
#25 = DIRECTION ( 'NONE',  ( -1.000000000000000000, 0.0000000000000000000, 8.722697483827585400E-016 ) ) ;
#26 = ORIENTED_EDGE ( 'NONE', *, *, #198, .T. ) ;
#27 = SURFACE_STYLE_FILL_AREA ( #73 ) ;
#28 = CARTESIAN_POINT ( 'NONE',  ( 1.224646799147353300E-015, 20.00000000000000000, 20.00000000000000000 ) ) ;
#29 = ADVANCED_FACE ( 'NONE', ( #151 ), #57, .F. ) ;
#30 = ADVANCED_FACE ( 'NONE', ( #181 ), #89, .F. ) ;
#31 = CARTESIAN_POINT ( 'NONE',  ( -3.977493153220296000, 20.00000000000000000, 0.0000000000000000000 ) ) ;
#32 = CARTESIAN_POINT ( 'NONE',  ( -54.63999999999999300, 20.00000000000000000, 10.00000000000001100 ) ) ;
#33 = CARTESIAN_POINT ( 'NONE',  ( 1.224646799147353300E-015, 20.00000000000000000, 20.00000000000000000 ) ) ;
#34 = PRESENTATION_LAYER_ASSIGNMENT (  '', '', ( #20 ) ) ;
#35 = DIRECTION ( 'NONE',  ( 1.000000000000000000, 0.0000000000000000000, 0.0000000000000000000 ) ) ;
#36 = ADVANCED_FACE ( 'NONE', ( #100 ), #180, .F. ) ;
#37 = ORIENTED_EDGE ( 'NONE', *, *, #2, .F. ) ;
#38 = PRODUCT_CONTEXT ( 'NONE', #86, 'mechanical' ) ;
#39 = DIRECTION ( 'NONE',  ( 6.123233995736766000E-017, 0.0000000000000000000, 1.000000000000000000 ) ) ;
#40 = LINE ( 'NONE', #33, #42 ) ;
#41 = ORIENTED_EDGE ( 'NONE', *, *, #154, .T. ) ;
#42 = VECTOR ( 'NONE', #66, 1000.000000000000000 ) ;
#43 =( LENGTH_UNIT ( ) NAMED_UNIT ( * ) SI_UNIT ( .MILLI., .METRE. ) );
#44 = LINE ( 'NONE', #5, #121 ) ;
#45 =( NAMED_UNIT ( * ) SI_UNIT ( $, .STERADIAN. ) SOLID_ANGLE_UNIT ( ) );
#46 = CARTESIAN_POINT ( 'NONE',  ( -3.977493153220296000, 20.00000000000000000, 0.0000000000000000000 ) ) ;
#47 = DIRECTION ( 'NONE',  ( 1.000000000000000000, -0.0000000000000000000, 8.722697483827589400E-016 ) ) ;
#48 = CARTESIAN_POINT ( 'NONE',  ( 0.0000000000000000000, 20.00000000000000000, 0.0000000000000000000 ) ) ;
#49 =( NAMED_UNIT ( * ) PLANE_ANGLE_UNIT ( ) SI_UNIT ( $, .RADIAN. ) );
#50 = AXIS2_PLACEMENT_3D ( 'NONE', #23, #81, #160 ) ;
#51 = DIRECTION ( 'NONE',  ( -0.0000000000000000000, -1.000000000000000000, -0.0000000000000000000 ) ) ;
#52 = APPLICATION_PROTOCOL_DEFINITION ( 'draft international standard', 'automotive_design', 1998, #86 ) ;
#53 = CARTESIAN_POINT ( 'NONE',  ( -3.977493153220295500, 0.0000000000000000000, 19.99999999999999600 ) ) ;
#54 = ORIENTED_EDGE ( 'NONE', *, *, #191, .F. ) ;
#55 = DIRECTION ( 'NONE',  ( -0.0000000000000000000, -1.000000000000000000, -0.0000000000000000000 ) ) ;
#56 = ORIENTED_EDGE ( 'NONE', *, *, #11, .T. ) ;
#57 = PLANE ( 'NONE',  #132 ) ;
#58 = ORIENTED_EDGE ( 'NONE', *, *, #11, .F. ) ;
#59 = PRODUCT_DEFINITION_CONTEXT ( 'detailed design', #148, 'design' ) ;
#60 =( GEOMETRIC_REPRESENTATION_CONTEXT ( 3 ) GLOBAL_UNCERTAINTY_ASSIGNED_CONTEXT ( ( #118 ) ) GLOBAL_UNIT_ASSIGNED_CONTEXT ( ( #77, #49, #12 ) ) REPRESENTATION_CONTEXT ( 'NONE', 'WORKASPACE' ) );
#61 = VERTEX_POINT ( 'NONE', #13 ) ;
#62 = DIRECTION ( 'NONE',  ( 0.0000000000000000000, 0.0000000000000000000, -1.000000000000000000 ) ) ;
#63 =( GEOMETRIC_REPRESENTATION_CONTEXT ( 3 ) GLOBAL_UNCERTAINTY_ASSIGNED_CONTEXT ( ( #134 ) ) GLOBAL_UNIT_ASSIGNED_CONTEXT ( ( #197, #186, #104 ) ) REPRESENTATION_CONTEXT ( 'NONE', 'WORKASPACE' ) );
#64 = ORIENTED_EDGE ( 'NONE', *, *, #162, .F. ) ;
#65 = EDGE_LOOP ( 'NONE', ( #41, #58, #138, #185 ) ) ;
#66 = DIRECTION ( 'NONE',  ( 1.000000000000000000, -0.0000000000000000000, 8.722697483827589400E-016 ) ) ;
#67 = VECTOR ( 'NONE', #70, 1000.000000000000000 ) ;
#68 = ORIENTED_EDGE ( 'NONE', *, *, #189, .T. ) ;
#69 = PRESENTATION_LAYER_ASSIGNMENT (  '', '', ( #112 ) ) ;
#70 = DIRECTION ( 'NONE',  ( -0.0000000000000000000, -1.000000000000000000, -0.0000000000000000000 ) ) ;
#71 = VECTOR ( 'NONE', #47, 1000.000000000000000 ) ;
#72 = DIRECTION ( 'NONE',  ( 8.722697483827585400E-016, -0.0000000000000000000, 1.000000000000000000 ) ) ;
#73 = FILL_AREA_STYLE ('',( #85 ) ) ;
#74 = ORIENTED_EDGE ( 'NONE', *, *, #158, .T. ) ;
#75 = SHAPE_DEFINITION_REPRESENTATION ( #120, #9 ) ;
#76 = EDGE_LOOP ( 'NONE', ( #74, #170, #64, #165 ) ) ;
#77 =( LENGTH_UNIT ( ) NAMED_UNIT ( * ) SI_UNIT ( .MILLI., .METRE. ) );
#78 = LINE ( 'NONE', #195, #67 ) ;
#79 = APPLICATION_PROTOCOL_DEFINITION ( 'draft international standard', 'automotive_design', 1998, #148 ) ;
#80 = VECTOR ( 'NONE', #136, 1000.000000000000000 ) ;
#81 = DIRECTION ( 'NONE',  ( -0.0000000000000000000, -1.000000000000000000, -0.0000000000000000000 ) ) ;
#82 = AXIS2_PLACEMENT_3D ( 'NONE', #125, #139, #101 ) ;
#83 = COLOUR_RGB ( '',1.000000000000000000, 1.000000000000000000, 1.000000000000000000 ) ;
#84 = CARTESIAN_POINT ( 'NONE',  ( 0.0000000000000000000, 0.0000000000000000000, 0.0000000000000000000 ) ) ;
#85 = FILL_AREA_STYLE_COLOUR ( '', #107 ) ;
#86 = APPLICATION_CONTEXT ( 'automotive_design' ) ;
#87 = CARTESIAN_POINT ( 'NONE',  ( 0.0000000000000000000, 20.00000000000000000, 0.0000000000000000000 ) ) ;
#88 = DIRECTION ( 'NONE',  ( 0.0000000000000000000, 1.000000000000000000, 0.0000000000000000000 ) ) ;
#89 = PLANE ( 'NONE',  #130 ) ;
#90 = VERTEX_POINT ( 'NONE', #123 ) ;
#91 = VECTOR ( 'NONE', #127, 1000.000000000000000 ) ;
#92 = MECHANICAL_DESIGN_GEOMETRIC_PRESENTATION_REPRESENTATION (  '', ( #112 ), #60 ) ;
#93 = PLANE ( 'NONE',  #109 ) ;
#94 = CARTESIAN_POINT ( 'NONE',  ( -54.63999999999999300, 0.0000000000000000000, 10.00000000000001100 ) ) ;
#95 = VERTEX_POINT ( 'NONE', #28 ) ;
#96 =( NAMED_UNIT ( * ) PLANE_ANGLE_UNIT ( ) SI_UNIT ( $, .RADIAN. ) );
#97 = ADVANCED_FACE ( 'NONE', ( #194 ), #22, .F. ) ;
#98 = LINE ( 'NONE', #87, #122 ) ;
#99 = ORIENTED_EDGE ( 'NONE', *, *, #189, .F. ) ;
#100 = FACE_OUTER_BOUND ( 'NONE', #65, .T. ) ;
#101 = DIRECTION ( 'NONE',  ( -1.000000000000000000, 0.0000000000000000000, -8.722697483827589400E-016 ) ) ;
#102 = SURFACE_SIDE_STYLE ('',( #27 ) ) ;
#103 = ORIENTED_EDGE ( 'NONE', *, *, #198, .F. ) ;
#104 =( NAMED_UNIT ( * ) SI_UNIT ( $, .STERADIAN. ) SOLID_ANGLE_UNIT ( ) );
#105 = DIRECTION ( 'NONE',  ( 0.0000000000000000000, -0.0000000000000000000, 1.000000000000000000 ) ) ;
#106 = ADVANCED_FACE ( 'NONE', ( #137 ), #93, .T. ) ;
#107 = COLOUR_RGB ( '',1.000000000000000000, 1.000000000000000000, 1.000000000000000000 ) ;
#108 = CARTESIAN_POINT ( 'NONE',  ( 0.0000000000000000000, 0.0000000000000000000, 0.0000000000000000000 ) ) ;
#109 = AXIS2_PLACEMENT_3D ( 'NONE', #32, #131, #126 ) ;
#110 = ORIENTED_EDGE ( 'NONE', *, *, #4, .F. ) ;
#111 = DIRECTION ( 'NONE',  ( 1.000000000000000000, 0.0000000000000000000, -8.722697483827585400E-016 ) ) ;
#112 = STYLED_ITEM ( 'NONE', ( #7 ), #166 ) ;
#113 = ORIENTED_EDGE ( 'NONE', *, *, #169, .F. ) ;
#114 = VECTOR ( 'NONE', #1, 1000.000000000000000 ) ;
#115 = DIRECTION ( 'NONE',  ( -1.000000000000000000, 0.0000000000000000000, 6.123233995736766000E-017 ) ) ;
#116 = CARTESIAN_POINT ( 'NONE',  ( -3.977493153220295500, 20.00000000000000000, 19.99999999999999600 ) ) ;
#117 = AXIS2_PLACEMENT_3D ( 'NONE', #94, #51, #149 ) ;
#118 = UNCERTAINTY_MEASURE_WITH_UNIT (LENGTH_MEASURE( 1.000000000000000100E-005 ), #77, 'distance_accuracy_value', 'NONE');
#119 = AXIS2_PLACEMENT_3D ( 'NONE', #16, #72, #111 ) ;
#120 = PRODUCT_DEFINITION_SHAPE ( 'NONE', 'NONE',  #190 ) ;
#121 = VECTOR ( 'NONE', #25, 1000.000000000000000 ) ;
#122 = VECTOR ( 'NONE', #55, 1000.000000000000000 ) ;
#123 = CARTESIAN_POINT ( 'NONE',  ( -3.977493153220296000, 0.0000000000000000000, 0.0000000000000000000 ) ) ;
#124 = AXIS2_PLACEMENT_3D ( 'NONE', #174, #196, #62 ) ;
#125 = CARTESIAN_POINT ( 'NONE',  ( 1.224646799147353300E-015, 20.00000000000000000, 20.00000000000000000 ) ) ;
#126 = DIRECTION ( 'NONE',  ( 0.0000000000000000000, -0.0000000000000000000, 1.000000000000000000 ) ) ;
#127 = DIRECTION ( 'NONE',  ( -0.0000000000000000000, -1.000000000000000000, -0.0000000000000000000 ) ) ;
#128 = EDGE_LOOP ( 'NONE', ( #103, #187, #110, #147 ) ) ;
#129 = CARTESIAN_POINT ( 'NONE',  ( 1.224646799147353300E-015, 0.0000000000000000000, 20.00000000000000000 ) ) ;
#130 = AXIS2_PLACEMENT_3D ( 'NONE', #167, #88, #105 ) ;
#131 = DIRECTION ( 'NONE',  ( 0.0000000000000000000, 1.000000000000000000, 0.0000000000000000000 ) ) ;
#132 = AXIS2_PLACEMENT_3D ( 'NONE', #48, #115, #39 ) ;
#133 = LINE ( 'NONE', #183, #153 ) ;
#134 = UNCERTAINTY_MEASURE_WITH_UNIT (LENGTH_MEASURE( 1.000000000000000100E-005 ), #197, 'distance_accuracy_value', 'NONE');
#135 = VERTEX_POINT ( 'NONE', #53 ) ;
#136 = DIRECTION ( 'NONE',  ( -1.000000000000000000, 0.0000000000000000000, 8.722697483827585400E-016 ) ) ;
#137 = FACE_OUTER_BOUND ( 'NONE', #21, .T. ) ;
#138 = ORIENTED_EDGE ( 'NONE', *, *, #179, .F. ) ;
#139 = DIRECTION ( 'NONE',  ( 8.722697483827589400E-016, 0.0000000000000000000, -1.000000000000000000 ) ) ;
#140 = PLANE ( 'NONE',  #82 ) ;
#141 = CIRCLE ( 'NONE', #117, 51.64000000000000100 ) ;
#142 = LINE ( 'NONE', #129, #71 ) ;
#143 = ORIENTED_EDGE ( 'NONE', *, *, #4, .T. ) ;
#144 = EDGE_CURVE ( 'NONE', #155, #61, #98, .T. ) ;
#145 = ORIENTED_EDGE ( 'NONE', *, *, #162, .T. ) ;
#146 = DIRECTION ( 'NONE',  ( -0.0000000000000000000, -1.000000000000000000, -0.0000000000000000000 ) ) ;
#147 = ORIENTED_EDGE ( 'NONE', *, *, #154, .F. ) ;
#148 = APPLICATION_CONTEXT ( 'automotive_design' ) ;
#149 = DIRECTION ( 'NONE',  ( 0.0000000000000000000, 0.0000000000000000000, 1.000000000000000000 ) ) ;
#150 = FILL_AREA_STYLE_COLOUR ( '', #83 ) ;
#151 = FACE_OUTER_BOUND ( 'NONE', #76, .T. ) ;
#152 = ORIENTED_EDGE ( 'NONE', *, *, #169, .T. ) ;
#153 = VECTOR ( 'NONE', #192, 1000.000000000000000 ) ;
#154 = EDGE_CURVE ( 'NONE', #90, #135, #141, .T. ) ;
#155 = VERTEX_POINT ( 'NONE', #204 ) ;
#156 = PRODUCT_RELATED_PRODUCT_CATEGORY ( 'part', '', ( #177 ) ) ;
#157 = FILL_AREA_STYLE ('',( #150 ) ) ;
#158 = EDGE_CURVE ( 'NONE', #24, #61, #133, .T. ) ;
#159 = CARTESIAN_POINT ( 'NONE',  ( 1.224646799147353300E-015, 20.00000000000000000, 20.00000000000000000 ) ) ;
#160 = DIRECTION ( 'NONE',  ( 0.0000000000000000000, 0.0000000000000000000, 1.000000000000000000 ) ) ;
#161 = ADVANCED_FACE ( 'NONE', ( #200 ), #140, .F. ) ;
#162 = EDGE_CURVE ( 'NONE', #95, #155, #176, .T. ) ;
#163 = LINE ( 'NONE', #108, #80 ) ;
#164 = CIRCLE ( 'NONE', #50, 51.64000000000000100 ) ;
#165 = ORIENTED_EDGE ( 'NONE', *, *, #191, .T. ) ;
#166 = MANIFOLD_SOLID_BREP ( 'Í¹Ì¨-À­Éì1', #14 ) ;
#167 = CARTESIAN_POINT ( 'NONE',  ( -54.63999999999999300, 0.0000000000000000000, 10.00000000000001100 ) ) ;
#168 = SURFACE_STYLE_USAGE ( .BOTH. , #102 ) ;
#169 = EDGE_CURVE ( 'NONE', #155, #17, #44, .T. ) ;
#170 = ORIENTED_EDGE ( 'NONE', *, *, #144, .F. ) ;
#171 = MECHANICAL_DESIGN_GEOMETRIC_PRESENTATION_REPRESENTATION (  '', ( #20 ), #15 ) ;
#172 = DIRECTION ( 'NONE',  ( 0.0000000000000000000, 0.0000000000000000000, 1.000000000000000000 ) ) ;
#173 = SURFACE_STYLE_FILL_AREA ( #157 ) ;
#174 = CARTESIAN_POINT ( 'NONE',  ( -54.63999999999999300, 20.00000000000000000, 10.00000000000001100 ) ) ;
#175 = ORIENTED_EDGE ( 'NONE', *, *, #144, .T. ) ;
#176 = LINE ( 'NONE', #8, #114 ) ;
#177 = PRODUCT ( '155347', '155347', '', ( #38 ) ) ;
#178 = PRODUCT_DEFINITION_FORMATION_WITH_SPECIFIED_SOURCE ( 'ÈÎºÎ', '', #177, .NOT_KNOWN. ) ;
#179 = EDGE_CURVE ( 'NONE', #17, #18, #164, .T. ) ;
#180 = CYLINDRICAL_SURFACE ( 'NONE', #124, 51.64000000000000100 ) ;
#181 = FACE_OUTER_BOUND ( 'NONE', #128, .T. ) ;
#182 = AXIS2_PLACEMENT_3D ( 'NONE', #84, #172, #35 ) ;
#183 = CARTESIAN_POINT ( 'NONE',  ( 0.0000000000000000000, 0.0000000000000000000, 0.0000000000000000000 ) ) ;
#184 = PRESENTATION_STYLE_ASSIGNMENT (( #168 ) ) ;
#185 = ORIENTED_EDGE ( 'NONE', *, *, #2, .T. ) ;
#186 =( NAMED_UNIT ( * ) PLANE_ANGLE_UNIT ( ) SI_UNIT ( $, .RADIAN. ) );
#187 = ORIENTED_EDGE ( 'NONE', *, *, #158, .F. ) ;
#188 = EDGE_LOOP ( 'NONE', ( #26, #37, #113, #175 ) ) ;
#189 = EDGE_CURVE ( 'NONE', #18, #95, #40, .T. ) ;
#190 = PRODUCT_DEFINITION ( 'Î´Öª', '', #178, #59 ) ;
#191 = EDGE_CURVE ( 'NONE', #95, #24, #203, .T. ) ;
#192 = DIRECTION ( 'NONE',  ( -6.123233995736766000E-017, -0.0000000000000000000, -1.000000000000000000 ) ) ;
#193 = CARTESIAN_POINT ( 'NONE',  ( 1.224646799147353300E-015, 0.0000000000000000000, 20.00000000000000000 ) ) ;
#194 = FACE_OUTER_BOUND ( 'NONE', #188, .T. ) ;
#195 = CARTESIAN_POINT ( 'NONE',  ( -3.977493153220295500, 20.00000000000000000, 19.99999999999999600 ) ) ;
#196 = DIRECTION ( 'NONE',  ( -0.0000000000000000000, -1.000000000000000000, -0.0000000000000000000 ) ) ;
#197 =( LENGTH_UNIT ( ) NAMED_UNIT ( * ) SI_UNIT ( .MILLI., .METRE. ) );
#198 = EDGE_CURVE ( 'NONE', #61, #90, #163, .T. ) ;
#199 = SURFACE_SIDE_STYLE ('',( #173 ) ) ;
#200 = FACE_OUTER_BOUND ( 'NONE', #201, .T. ) ;
#201 = EDGE_LOOP ( 'NONE', ( #143, #54, #99, #56 ) ) ;
#202 = VECTOR ( 'NONE', #146, 1000.000000000000000 ) ;
#203 = LINE ( 'NONE', #159, #202 ) ;
#204 = CARTESIAN_POINT ( 'NONE',  ( 0.0000000000000000000, 20.00000000000000000, 0.0000000000000000000 ) ) ;
ENDSEC;
END-ISO-10303-21;
