ISO-10303-21;
HEADER;
FILE_DESCRIPTION (( 'STEP AP214' ),
    '1' );
FILE_NAME ('155466.STEP',
    '2019-07-03T05:38:30',
    ( 'user' ),
    ( 'Î¢ÈíÖÐ¹ú' ),
    'SwSTEP 2.0',
    'SolidWorks 2016',
    '' );
FILE_SCHEMA (( 'AUTOMOTIVE_DESIGN' ));
ENDSEC;

DATA;
#1 = CIRCLE ( 'NONE', #24, 11.45000000000000100 ) ;
#2 = AXIS2_PLACEMENT_3D ( 'NONE', #76, #38, #179 ) ;
#3 = LINE ( 'NONE', #123, #111 ) ;
#4 =( GEOMETRIC_REPRESENTATION_CONTEXT ( 3 ) GLOBAL_UNCERTAINTY_ASSIGNED_CONTEXT ( ( #61 ) ) GLOBAL_UNIT_ASSIGNED_CONTEXT ( ( #70, #167, #195 ) ) REPRESENTATION_CONTEXT ( 'NONE', 'WORKASPACE' ) );
#5 = ORIENTED_EDGE ( 'NONE', *, *, #45, .F. ) ;
#6 = SHAPE_DEFINITION_REPRESENTATION ( #109, #157 ) ;
#7 = VERTEX_POINT ( 'NONE', #56 ) ;
#8 = DIRECTION ( 'NONE',  ( -2.192453427204924500E-025, 0.0000000000000000000, 1.000000000000000000 ) ) ;
#9 = DIRECTION ( 'NONE',  ( -0.0000000000000000000, -1.000000000000000000, -0.0000000000000000000 ) ) ;
#10 = CARTESIAN_POINT ( 'NONE',  ( 0.0000000000000000000, 0.0000000000000000000, 0.0000000000000000000 ) ) ;
#11 = EDGE_LOOP ( 'NONE', ( #112, #21, #176, #139 ) ) ;
#12 = ADVANCED_FACE ( 'NONE', ( #170 ), #99, .T. ) ;
#13 = EDGE_CURVE ( 'NONE', #49, #92, #1, .T. ) ;
#14 = LINE ( 'NONE', #39, #160 ) ;
#15 = CLOSED_SHELL ( 'NONE', ( #201, #116, #178, #96, #12, #151 ) ) ;
#16 = FACE_OUTER_BOUND ( 'NONE', #11, .T. ) ;
#17 = PRODUCT_DEFINITION_FORMATION_WITH_SPECIFIED_SOURCE ( 'ÈÎºÎ', '', #102, .NOT_KNOWN. ) ;
#18 = ORIENTED_EDGE ( 'NONE', *, *, #13, .F. ) ;
#19 = ORIENTED_EDGE ( 'NONE', *, *, #172, .T. ) ;
#20 = PLANE ( 'NONE',  #199 ) ;
#21 = ORIENTED_EDGE ( 'NONE', *, *, #191, .F. ) ;
#22 = CARTESIAN_POINT ( 'NONE',  ( -13.44999999999999900, 0.0000000000000000000, 5.000000000000000000 ) ) ;
#23 = CARTESIAN_POINT ( 'NONE',  ( 6.123233995736766300E-016, 0.0000000000000000000, 10.00000000000000000 ) ) ;
#24 = AXIS2_PLACEMENT_3D ( 'NONE', #68, #9, #83 ) ;
#25 = PRODUCT_DEFINITION_CONTEXT ( 'detailed design', #98, 'design' ) ;
#26 = CARTESIAN_POINT ( 'NONE',  ( 0.0000000000000000000, 0.0000000000000000000, 0.0000000000000000000 ) ) ;
#27 = AXIS2_PLACEMENT_3D ( 'NONE', #168, #188, #119 ) ;
#28 = COLOUR_RGB ( '',1.000000000000000000, 1.000000000000000000, 1.000000000000000000 ) ;
#29 = COLOUR_RGB ( '',1.000000000000000000, 1.000000000000000000, 1.000000000000000000 ) ;
#30 = STYLED_ITEM ( 'NONE', ( #64 ), #157 ) ;
#31 = LINE ( 'NONE', #127, #129 ) ;
#32 = APPLICATION_CONTEXT ( 'automotive_design' ) ;
#33 = EDGE_CURVE ( 'NONE', #37, #142, #40, .T. ) ;
#34 =( NAMED_UNIT ( * ) SI_UNIT ( $, .STERADIAN. ) SOLID_ANGLE_UNIT ( ) );
#35 = CARTESIAN_POINT ( 'NONE',  ( -3.149393221756300800, 10.00000000000000000, 10.00000000000000000 ) ) ;
#36 = SURFACE_STYLE_FILL_AREA ( #183 ) ;
#37 = VERTEX_POINT ( 'NONE', #23 ) ;
#38 = DIRECTION ( 'NONE',  ( 0.0000000000000000000, 0.0000000000000000000, 1.000000000000000000 ) ) ;
#39 = CARTESIAN_POINT ( 'NONE',  ( 6.123233995736766300E-016, 10.00000000000000000, 10.00000000000000000 ) ) ;
#40 = LINE ( 'NONE', #10, #104 ) ;
#41 = DIRECTION ( 'NONE',  ( 0.0000000000000000000, 0.0000000000000000000, -1.000000000000000000 ) ) ;
#42 = VECTOR ( 'NONE', #66, 1000.000000000000000 ) ;
#43 = EDGE_LOOP ( 'NONE', ( #62, #158, #184, #95 ) ) ;
#44 =( GEOMETRIC_REPRESENTATION_CONTEXT ( 3 ) GLOBAL_UNCERTAINTY_ASSIGNED_CONTEXT ( ( #73 ) ) GLOBAL_UNIT_ASSIGNED_CONTEXT ( ( #81, #113, #131 ) ) REPRESENTATION_CONTEXT ( 'NONE', 'WORKASPACE' ) );
#45 = EDGE_CURVE ( 'NONE', #7, #37, #14, .T. ) ;
#46 = VERTEX_POINT ( 'NONE', #121 ) ;
#47 = EDGE_LOOP ( 'NONE', ( #63, #194, #58, #115 ) ) ;
#48 = AXIS2_PLACEMENT_3D ( 'NONE', #86, #150, #55 ) ;
#49 = VERTEX_POINT ( 'NONE', #69 ) ;
#50 = FILL_AREA_STYLE_COLOUR ( '', #28 ) ;
#51 =( NAMED_UNIT ( * ) PLANE_ANGLE_UNIT ( ) SI_UNIT ( $, .RADIAN. ) );
#52 = DIRECTION ( 'NONE',  ( 0.0000000000000000000, 0.0000000000000000000, -1.000000000000000000 ) ) ;
#53 = LINE ( 'NONE', #107, #90 ) ;
#54 = SURFACE_SIDE_STYLE ('',( #36 ) ) ;
#55 = DIRECTION ( 'NONE',  ( 0.0000000000000000000, -0.0000000000000000000, 1.000000000000000000 ) ) ;
#56 = CARTESIAN_POINT ( 'NONE',  ( 6.123233995736766300E-016, 10.00000000000000000, 10.00000000000000000 ) ) ;
#57 = ORIENTED_EDGE ( 'NONE', *, *, #138, .T. ) ;
#58 = ORIENTED_EDGE ( 'NONE', *, *, #118, .F. ) ;
#59 = AXIS2_PLACEMENT_3D ( 'NONE', #65, #187, #71 ) ;
#60 = DIRECTION ( 'NONE',  ( -0.0000000000000000000, -1.000000000000000000, -0.0000000000000000000 ) ) ;
#61 = UNCERTAINTY_MEASURE_WITH_UNIT (LENGTH_MEASURE( 1.000000000000000100E-005 ), #70, 'distance_accuracy_value', 'NONE');
#62 = ORIENTED_EDGE ( 'NONE', *, *, #80, .F. ) ;
#63 = ORIENTED_EDGE ( 'NONE', *, *, #33, .T. ) ;
#64 = PRESENTATION_STYLE_ASSIGNMENT (( #162 ) ) ;
#65 = CARTESIAN_POINT ( 'NONE',  ( -13.44999999999999900, 0.0000000000000000000, 5.000000000000000000 ) ) ;
#66 = DIRECTION ( 'NONE',  ( -0.0000000000000000000, -1.000000000000000000, -0.0000000000000000000 ) ) ;
#67 = SURFACE_SIDE_STYLE ('',( #105 ) ) ;
#68 = CARTESIAN_POINT ( 'NONE',  ( -13.44999999999999900, 10.00000000000000000, 5.000000000000000000 ) ) ;
#69 = CARTESIAN_POINT ( 'NONE',  ( -3.149393221756299400, 10.00000000000000000, 8.673617379884035500E-016 ) ) ;
#70 =( LENGTH_UNIT ( ) NAMED_UNIT ( * ) SI_UNIT ( .MILLI., .METRE. ) );
#71 = DIRECTION ( 'NONE',  ( 0.0000000000000000000, -0.0000000000000000000, 1.000000000000000000 ) ) ;
#72 = PRODUCT_DEFINITION ( 'Î´Öª', '', #17, #25 ) ;
#73 = UNCERTAINTY_MEASURE_WITH_UNIT (LENGTH_MEASURE( 1.000000000000000100E-005 ), #81, 'distance_accuracy_value', 'NONE');
#74 = VECTOR ( 'NONE', #133, 1000.000000000000000 ) ;
#75 = STYLED_ITEM ( 'NONE', ( #193 ), #153 ) ;
#76 = CARTESIAN_POINT ( 'NONE',  ( 0.0000000000000000000, 0.0000000000000000000, 0.0000000000000000000 ) ) ;
#77 = ORIENTED_EDGE ( 'NONE', *, *, #152, .F. ) ;
#78 = VERTEX_POINT ( 'NONE', #137 ) ;
#79 =( LENGTH_UNIT ( ) NAMED_UNIT ( * ) SI_UNIT ( .MILLI., .METRE. ) );
#80 = EDGE_CURVE ( 'NONE', #142, #46, #149, .T. ) ;
#81 =( LENGTH_UNIT ( ) NAMED_UNIT ( * ) SI_UNIT ( .MILLI., .METRE. ) );
#82 = CARTESIAN_POINT ( 'NONE',  ( 6.123233995736766300E-016, 10.00000000000000000, 10.00000000000000000 ) ) ;
#83 = DIRECTION ( 'NONE',  ( 0.0000000000000000000, 0.0000000000000000000, 1.000000000000000000 ) ) ;
#84 = DIRECTION ( 'NONE',  ( -0.0000000000000000000, -1.000000000000000000, -0.0000000000000000000 ) ) ;
#85 = DIRECTION ( 'NONE',  ( 1.000000000000000000, 0.0000000000000000000, 2.192453427204924500E-025 ) ) ;
#86 = CARTESIAN_POINT ( 'NONE',  ( -13.44999999999999900, 10.00000000000000000, 5.000000000000000000 ) ) ;
#87 = ORIENTED_EDGE ( 'NONE', *, *, #152, .T. ) ;
#88 = ORIENTED_EDGE ( 'NONE', *, *, #13, .T. ) ;
#89 =( GEOMETRIC_REPRESENTATION_CONTEXT ( 3 ) GLOBAL_UNCERTAINTY_ASSIGNED_CONTEXT ( ( #171 ) ) GLOBAL_UNIT_ASSIGNED_CONTEXT ( ( #79, #51, #34 ) ) REPRESENTATION_CONTEXT ( 'NONE', 'WORKASPACE' ) );
#90 = VECTOR ( 'NONE', #108, 1000.000000000000000 ) ;
#91 = VECTOR ( 'NONE', #94, 1000.000000000000000 ) ;
#92 = VERTEX_POINT ( 'NONE', #35 ) ;
#93 = FILL_AREA_STYLE ('',( #132 ) ) ;
#94 = DIRECTION ( 'NONE',  ( 1.000000000000000000, -0.0000000000000000000, -0.0000000000000000000 ) ) ;
#95 = ORIENTED_EDGE ( 'NONE', *, *, #172, .F. ) ;
#96 = ADVANCED_FACE ( 'NONE', ( #125 ), #197, .F. ) ;
#97 = PLANE ( 'NONE',  #154 ) ;
#98 = APPLICATION_CONTEXT ( 'automotive_design' ) ;
#99 = PLANE ( 'NONE',  #48 ) ;
#100 = FACE_OUTER_BOUND ( 'NONE', #189, .T. ) ;
#101 = DIRECTION ( 'NONE',  ( -6.123233995736766000E-017, -0.0000000000000000000, -1.000000000000000000 ) ) ;
#102 = PRODUCT ( '155466', '155466', '', ( #148 ) ) ;
#103 = ORIENTED_EDGE ( 'NONE', *, *, #118, .T. ) ;
#104 = VECTOR ( 'NONE', #124, 1000.000000000000000 ) ;
#105 = SURFACE_STYLE_FILL_AREA ( #93 ) ;
#106 = EDGE_CURVE ( 'NONE', #174, #37, #53, .T. ) ;
#107 = CARTESIAN_POINT ( 'NONE',  ( 6.123233995736766300E-016, 0.0000000000000000000, 10.00000000000000000 ) ) ;
#108 = DIRECTION ( 'NONE',  ( 1.000000000000000000, -0.0000000000000000000, -0.0000000000000000000 ) ) ;
#109 = PRODUCT_DEFINITION_SHAPE ( 'NONE', 'NONE',  #72 ) ;
#110 = AXIS2_PLACEMENT_3D ( 'NONE', #190, #60, #41 ) ;
#111 = VECTOR ( 'NONE', #84, 1000.000000000000000 ) ;
#112 = ORIENTED_EDGE ( 'NONE', *, *, #80, .T. ) ;
#113 =( NAMED_UNIT ( * ) PLANE_ANGLE_UNIT ( ) SI_UNIT ( $, .RADIAN. ) );
#114 = LINE ( 'NONE', #145, #177 ) ;
#115 = ORIENTED_EDGE ( 'NONE', *, *, #45, .T. ) ;
#116 = ADVANCED_FACE ( 'NONE', ( #156 ), #126, .F. ) ;
#117 = APPLICATION_PROTOCOL_DEFINITION ( 'draft international standard', 'automotive_design', 1998, #32 ) ;
#118 = EDGE_CURVE ( 'NONE', #7, #78, #31, .T. ) ;
#119 = DIRECTION ( 'NONE',  ( 6.123233995736766000E-017, 0.0000000000000000000, 1.000000000000000000 ) ) ;
#120 = DIRECTION ( 'NONE',  ( -0.0000000000000000000, -1.000000000000000000, -0.0000000000000000000 ) ) ;
#121 = CARTESIAN_POINT ( 'NONE',  ( -3.149393221756299400, 0.0000000000000000000, 8.673617379884035500E-016 ) ) ;
#122 = LINE ( 'NONE', #175, #42 ) ;
#123 = CARTESIAN_POINT ( 'NONE',  ( -3.149393221756300800, 10.00000000000000000, 10.00000000000000000 ) ) ;
#124 = DIRECTION ( 'NONE',  ( -6.123233995736766000E-017, -0.0000000000000000000, -1.000000000000000000 ) ) ;
#125 = FACE_OUTER_BOUND ( 'NONE', #47, .T. ) ;
#126 = CYLINDRICAL_SURFACE ( 'NONE', #110, 11.45000000000000100 ) ;
#127 = CARTESIAN_POINT ( 'NONE',  ( 0.0000000000000000000, 10.00000000000000000, 0.0000000000000000000 ) ) ;
#128 = MECHANICAL_DESIGN_GEOMETRIC_PRESENTATION_REPRESENTATION (  '', ( #30 ), #44 ) ;
#129 = VECTOR ( 'NONE', #101, 1000.000000000000000 ) ;
#130 = EDGE_LOOP ( 'NONE', ( #57, #88, #192, #103 ) ) ;
#131 =( NAMED_UNIT ( * ) SI_UNIT ( $, .STERADIAN. ) SOLID_ANGLE_UNIT ( ) );
#132 = FILL_AREA_STYLE_COLOUR ( '', #29 ) ;
#133 = DIRECTION ( 'NONE',  ( -1.000000000000000000, 0.0000000000000000000, -2.192453427204924500E-025 ) ) ;
#134 = PRESENTATION_LAYER_ASSIGNMENT (  '', '', ( #75 ) ) ;
#135 = APPLICATION_PROTOCOL_DEFINITION ( 'draft international standard', 'automotive_design', 1998, #98 ) ;
#136 = CARTESIAN_POINT ( 'NONE',  ( -3.149393221756300800, 0.0000000000000000000, 10.00000000000000000 ) ) ;
#137 = CARTESIAN_POINT ( 'NONE',  ( 0.0000000000000000000, 10.00000000000000000, 0.0000000000000000000 ) ) ;
#138 = EDGE_CURVE ( 'NONE', #78, #49, #198, .T. ) ;
#139 = ORIENTED_EDGE ( 'NONE', *, *, #144, .T. ) ;
#140 = MECHANICAL_DESIGN_GEOMETRIC_PRESENTATION_REPRESENTATION (  '', ( #75 ), #89 ) ;
#141 = DIRECTION ( 'NONE',  ( 0.0000000000000000000, 0.0000000000000000000, 1.000000000000000000 ) ) ;
#142 = VERTEX_POINT ( 'NONE', #26 ) ;
#143 = PLANE ( 'NONE',  #59 ) ;
#144 = EDGE_CURVE ( 'NONE', #78, #142, #122, .T. ) ;
#145 = CARTESIAN_POINT ( 'NONE',  ( -3.149393221756299400, 10.00000000000000000, 8.673617379884035500E-016 ) ) ;
#146 = DIRECTION ( 'NONE',  ( -1.000000000000000000, 0.0000000000000000000, -0.0000000000000000000 ) ) ;
#147 = DIRECTION ( 'NONE',  ( -1.000000000000000000, 0.0000000000000000000, -2.192453427204924500E-025 ) ) ;
#148 = PRODUCT_CONTEXT ( 'NONE', #32, 'mechanical' ) ;
#149 = LINE ( 'NONE', #165, #74 ) ;
#150 = DIRECTION ( 'NONE',  ( 0.0000000000000000000, 1.000000000000000000, 0.0000000000000000000 ) ) ;
#151 = ADVANCED_FACE ( 'NONE', ( #203 ), #143, .F. ) ;
#152 = EDGE_CURVE ( 'NONE', #92, #174, #3, .T. ) ;
#153 = MANIFOLD_SOLID_BREP ( 'Í¹Ì¨-À­Éì1', #15 ) ;
#154 = AXIS2_PLACEMENT_3D ( 'NONE', #196, #8, #85 ) ;
#155 = VECTOR ( 'NONE', #147, 1000.000000000000000 ) ;
#156 = FACE_OUTER_BOUND ( 'NONE', #159, .T. ) ;
#157 = ADVANCED_BREP_SHAPE_REPRESENTATION ( '155466', ( #153, #2 ), #4 ) ;
#158 = ORIENTED_EDGE ( 'NONE', *, *, #33, .F. ) ;
#159 = EDGE_LOOP ( 'NONE', ( #19, #77, #18, #204 ) ) ;
#160 = VECTOR ( 'NONE', #169, 1000.000000000000000 ) ;
#161 = EDGE_CURVE ( 'NONE', #92, #7, #185, .T. ) ;
#162 = SURFACE_STYLE_USAGE ( .BOTH. , #67 ) ;
#163 = CARTESIAN_POINT ( 'NONE',  ( 0.0000000000000000000, 10.00000000000000000, 0.0000000000000000000 ) ) ;
#164 = ORIENTED_EDGE ( 'NONE', *, *, #106, .T. ) ;
#165 = CARTESIAN_POINT ( 'NONE',  ( 0.0000000000000000000, 0.0000000000000000000, 0.0000000000000000000 ) ) ;
#166 = AXIS2_PLACEMENT_3D ( 'NONE', #22, #180, #141 ) ;
#167 =( NAMED_UNIT ( * ) PLANE_ANGLE_UNIT ( ) SI_UNIT ( $, .RADIAN. ) );
#168 = CARTESIAN_POINT ( 'NONE',  ( 0.0000000000000000000, 10.00000000000000000, 0.0000000000000000000 ) ) ;
#169 = DIRECTION ( 'NONE',  ( -0.0000000000000000000, -1.000000000000000000, -0.0000000000000000000 ) ) ;
#170 = FACE_OUTER_BOUND ( 'NONE', #130, .T. ) ;
#171 = UNCERTAINTY_MEASURE_WITH_UNIT (LENGTH_MEASURE( 1.000000000000000100E-005 ), #79, 'distance_accuracy_value', 'NONE');
#172 = EDGE_CURVE ( 'NONE', #46, #174, #173, .T. ) ;
#173 = CIRCLE ( 'NONE', #166, 11.45000000000000100 ) ;
#174 = VERTEX_POINT ( 'NONE', #136 ) ;
#175 = CARTESIAN_POINT ( 'NONE',  ( 0.0000000000000000000, 10.00000000000000000, 0.0000000000000000000 ) ) ;
#176 = ORIENTED_EDGE ( 'NONE', *, *, #138, .F. ) ;
#177 = VECTOR ( 'NONE', #120, 1000.000000000000000 ) ;
#178 = ADVANCED_FACE ( 'NONE', ( #100 ), #20, .F. ) ;
#179 = DIRECTION ( 'NONE',  ( 1.000000000000000000, 0.0000000000000000000, 0.0000000000000000000 ) ) ;
#180 = DIRECTION ( 'NONE',  ( -0.0000000000000000000, -1.000000000000000000, -0.0000000000000000000 ) ) ;
#181 = ORIENTED_EDGE ( 'NONE', *, *, #161, .F. ) ;
#182 = SURFACE_STYLE_USAGE ( .BOTH. , #54 ) ;
#183 = FILL_AREA_STYLE ('',( #50 ) ) ;
#184 = ORIENTED_EDGE ( 'NONE', *, *, #106, .F. ) ;
#185 = LINE ( 'NONE', #82, #91 ) ;
#186 = PRESENTATION_LAYER_ASSIGNMENT (  '', '', ( #30 ) ) ;
#187 = DIRECTION ( 'NONE',  ( 0.0000000000000000000, 1.000000000000000000, 0.0000000000000000000 ) ) ;
#188 = DIRECTION ( 'NONE',  ( -1.000000000000000000, 0.0000000000000000000, 6.123233995736766000E-017 ) ) ;
#189 = EDGE_LOOP ( 'NONE', ( #164, #5, #181, #87 ) ) ;
#190 = CARTESIAN_POINT ( 'NONE',  ( -13.44999999999999900, 10.00000000000000000, 5.000000000000000000 ) ) ;
#191 = EDGE_CURVE ( 'NONE', #49, #46, #114, .T. ) ;
#192 = ORIENTED_EDGE ( 'NONE', *, *, #161, .T. ) ;
#193 = PRESENTATION_STYLE_ASSIGNMENT (( #182 ) ) ;
#194 = ORIENTED_EDGE ( 'NONE', *, *, #144, .F. ) ;
#195 =( NAMED_UNIT ( * ) SI_UNIT ( $, .STERADIAN. ) SOLID_ANGLE_UNIT ( ) );
#196 = CARTESIAN_POINT ( 'NONE',  ( 0.0000000000000000000, 10.00000000000000000, 0.0000000000000000000 ) ) ;
#197 = PLANE ( 'NONE',  #27 ) ;
#198 = LINE ( 'NONE', #163, #155 ) ;
#199 = AXIS2_PLACEMENT_3D ( 'NONE', #200, #52, #146 ) ;
#200 = CARTESIAN_POINT ( 'NONE',  ( 6.123233995736766300E-016, 10.00000000000000000, 10.00000000000000000 ) ) ;
#201 = ADVANCED_FACE ( 'NONE', ( #16 ), #97, .F. ) ;
#202 = PRODUCT_RELATED_PRODUCT_CATEGORY ( 'part', '', ( #102 ) ) ;
#203 = FACE_OUTER_BOUND ( 'NONE', #43, .T. ) ;
#204 = ORIENTED_EDGE ( 'NONE', *, *, #191, .T. ) ;
ENDSEC;
END-ISO-10303-21;
