ISO-10303-21;
HEADER;
FILE_DESCRIPTION (( 'STEP AP214' ),
    '1' );
FILE_NAME ('155471.STEP',
    '2019-07-03T06:06:43',
    ( 'user' ),
    ( 'Î¢ÈíÖÐ¹ú' ),
    'SwSTEP 2.0',
    'SolidWorks 2016',
    '' );
FILE_SCHEMA (( 'AUTOMOTIVE_DESIGN' ));
ENDSEC;

DATA;
#1 = FILL_AREA_STYLE ('',( #197 ) ) ;
#2 = DIRECTION ( 'NONE',  ( 1.000000000000000000, 0.0000000000000000000, 0.0000000000000000000 ) ) ;
#3 = ORIENTED_EDGE ( 'NONE', *, *, #152, .T. ) ;
#4 = LINE ( 'NONE', #111, #181 ) ;
#5 = CYLINDRICAL_SURFACE ( 'NONE', #34, 68.78000000000000100 ) ;
#6 = AXIS2_PLACEMENT_3D ( 'NONE', #58, #105, #11 ) ;
#7 = CARTESIAN_POINT ( 'NONE',  ( 0.0000000000000000000, 0.0000000000000000000, 0.0000000000000000000 ) ) ;
#8 = DIRECTION ( 'NONE',  ( 0.0000000000000000000, -0.0000000000000000000, 1.000000000000000000 ) ) ;
#9 = PRESENTATION_STYLE_ASSIGNMENT (( #190 ) ) ;
#10 = LINE ( 'NONE', #40, #69 ) ;
#11 = DIRECTION ( 'NONE',  ( 0.0000000000000000000, -0.0000000000000000000, 1.000000000000000000 ) ) ;
#12 = CIRCLE ( 'NONE', #162, 68.78000000000000100 ) ;
#13 =( NAMED_UNIT ( * ) SI_UNIT ( $, .STERADIAN. ) SOLID_ANGLE_UNIT ( ) );
#14 = VECTOR ( 'NONE', #102, 1000.000000000000000 ) ;
#15 = DIRECTION ( 'NONE',  ( -0.0000000000000000000, -1.000000000000000000, -0.0000000000000000000 ) ) ;
#16 = PLANE ( 'NONE',  #6 ) ;
#17 = VECTOR ( 'NONE', #53, 1000.000000000000000 ) ;
#18 = ORIENTED_EDGE ( 'NONE', *, *, #19, .F. ) ;
#19 = EDGE_CURVE ( 'NONE', #199, #47, #10, .T. ) ;
#20 = ORIENTED_EDGE ( 'NONE', *, *, #22, .T. ) ;
#21 = ORIENTED_EDGE ( 'NONE', *, *, #61, .F. ) ;
#22 = EDGE_CURVE ( 'NONE', #32, #137, #12, .T. ) ;
#23 = DIRECTION ( 'NONE',  ( 0.0000000000000000000, 0.0000000000000000000, 1.000000000000000000 ) ) ;
#24 = FACE_OUTER_BOUND ( 'NONE', #131, .T. ) ;
#25 = DIRECTION ( 'NONE',  ( -1.000000000000000000, 0.0000000000000000000, 0.0000000000000000000 ) ) ;
#26 = PRESENTATION_STYLE_ASSIGNMENT (( #57 ) ) ;
#27 = LINE ( 'NONE', #83, #52 ) ;
#28 = LINE ( 'NONE', #43, #200 ) ;
#29 = AXIS2_PLACEMENT_3D ( 'NONE', #36, #48, #113 ) ;
#30 = FACE_OUTER_BOUND ( 'NONE', #185, .T. ) ;
#31 = APPLICATION_CONTEXT ( 'automotive_design' ) ;
#32 = VERTEX_POINT ( 'NONE', #79 ) ;
#33 = CARTESIAN_POINT ( 'NONE',  ( 0.0000000000000000000, 0.0000000000000000000, 0.0000000000000000000 ) ) ;
#34 = AXIS2_PLACEMENT_3D ( 'NONE', #74, #140, #184 ) ;
#35 = DIRECTION ( 'NONE',  ( 6.123233995736766000E-017, 0.0000000000000000000, 1.000000000000000000 ) ) ;
#36 = CARTESIAN_POINT ( 'NONE',  ( -70.78000000000001500, 10.00000000000000000, 5.000000000000008000 ) ) ;
#37 = PLANE ( 'NONE',  #95 ) ;
#38 = PRODUCT_CONTEXT ( 'NONE', #45, 'mechanical' ) ;
#39 = UNCERTAINTY_MEASURE_WITH_UNIT (LENGTH_MEASURE( 1.000000000000000100E-005 ), #76, 'distance_accuracy_value', 'NONE');
#40 = CARTESIAN_POINT ( 'NONE',  ( 0.0000000000000000000, 0.0000000000000000000, 0.0000000000000000000 ) ) ;
#41 = PRESENTATION_LAYER_ASSIGNMENT (  '', '', ( #186 ) ) ;
#42 = CARTESIAN_POINT ( 'NONE',  ( -70.78000000000001500, 10.00000000000000000, 5.000000000000008000 ) ) ;
#43 = CARTESIAN_POINT ( 'NONE',  ( 0.0000000000000000000, 10.00000000000000000, 0.0000000000000000000 ) ) ;
#44 = DIRECTION ( 'NONE',  ( 0.0000000000000000000, -0.0000000000000000000, 1.000000000000000000 ) ) ;
#45 = APPLICATION_CONTEXT ( 'automotive_design' ) ;
#46 = LINE ( 'NONE', #7, #157 ) ;
#47 = VERTEX_POINT ( 'NONE', #33 ) ;
#48 = DIRECTION ( 'NONE',  ( -0.0000000000000000000, -1.000000000000000000, -0.0000000000000000000 ) ) ;
#49 = EDGE_CURVE ( 'NONE', #62, #191, #27, .T. ) ;
#50 = UNCERTAINTY_MEASURE_WITH_UNIT (LENGTH_MEASURE( 1.000000000000000100E-005 ), #86, 'distance_accuracy_value', 'NONE');
#51 = ORIENTED_EDGE ( 'NONE', *, *, #115, .T. ) ;
#52 = VECTOR ( 'NONE', #55, 1000.000000000000000 ) ;
#53 = DIRECTION ( 'NONE',  ( 1.000000000000000000, -0.0000000000000000000, -0.0000000000000000000 ) ) ;
#54 = EDGE_LOOP ( 'NONE', ( #177, #203, #63, #65 ) ) ;
#55 = DIRECTION ( 'NONE',  ( 1.000000000000000000, -0.0000000000000000000, -0.0000000000000000000 ) ) ;
#56 = MECHANICAL_DESIGN_GEOMETRIC_PRESENTATION_REPRESENTATION (  '', ( #174 ), #196 ) ;
#57 = SURFACE_STYLE_USAGE ( .BOTH. , #151 ) ;
#58 = CARTESIAN_POINT ( 'NONE',  ( -70.78000000000001500, 0.0000000000000000000, 5.000000000000008000 ) ) ;
#59 = LINE ( 'NONE', #125, #17 ) ;
#60 = CARTESIAN_POINT ( 'NONE',  ( -2.181979620400120700, 10.00000000000000000, 4.336808689942017700E-015 ) ) ;
#61 = EDGE_CURVE ( 'NONE', #191, #106, #28, .T. ) ;
#62 = VERTEX_POINT ( 'NONE', #96 ) ;
#63 = ORIENTED_EDGE ( 'NONE', *, *, #49, .T. ) ;
#64 = AXIS2_PLACEMENT_3D ( 'NONE', #42, #71, #44 ) ;
#65 = ORIENTED_EDGE ( 'NONE', *, *, #61, .T. ) ;
#66 = CARTESIAN_POINT ( 'NONE',  ( 0.0000000000000000000, 10.00000000000000000, 0.0000000000000000000 ) ) ;
#67 = PRESENTATION_LAYER_ASSIGNMENT (  '', '', ( #174 ) ) ;
#68 = ORIENTED_EDGE ( 'NONE', *, *, #19, .T. ) ;
#69 = VECTOR ( 'NONE', #171, 1000.000000000000000 ) ;
#70 = PRODUCT ( '155471', '155471', '', ( #38 ) ) ;
#71 = DIRECTION ( 'NONE',  ( 0.0000000000000000000, 1.000000000000000000, 0.0000000000000000000 ) ) ;
#72 =( NAMED_UNIT ( * ) PLANE_ANGLE_UNIT ( ) SI_UNIT ( $, .RADIAN. ) );
#73 = LINE ( 'NONE', #66, #161 ) ;
#74 = CARTESIAN_POINT ( 'NONE',  ( -70.78000000000001500, 10.00000000000000000, 5.000000000000008000 ) ) ;
#75 = MECHANICAL_DESIGN_GEOMETRIC_PRESENTATION_REPRESENTATION (  '', ( #186 ), #85 ) ;
#76 =( LENGTH_UNIT ( ) NAMED_UNIT ( * ) SI_UNIT ( .MILLI., .METRE. ) );
#77 = EDGE_CURVE ( 'NONE', #47, #32, #46, .T. ) ;
#78 = DIRECTION ( 'NONE',  ( 0.0000000000000000000, 0.0000000000000000000, 1.000000000000000000 ) ) ;
#79 = CARTESIAN_POINT ( 'NONE',  ( -2.181979620400120700, 0.0000000000000000000, 4.336808689942017700E-015 ) ) ;
#80 = EDGE_LOOP ( 'NONE', ( #20, #149, #112, #3 ) ) ;
#81 =( LENGTH_UNIT ( ) NAMED_UNIT ( * ) SI_UNIT ( .MILLI., .METRE. ) );
#82 = ADVANCED_FACE ( 'NONE', ( #24 ), #16, .F. ) ;
#83 = CARTESIAN_POINT ( 'NONE',  ( 6.123233995736766300E-016, 10.00000000000000000, 10.00000000000000000 ) ) ;
#84 = CARTESIAN_POINT ( 'NONE',  ( 0.0000000000000000000, 10.00000000000000000, 0.0000000000000000000 ) ) ;
#85 =( GEOMETRIC_REPRESENTATION_CONTEXT ( 3 ) GLOBAL_UNCERTAINTY_ASSIGNED_CONTEXT ( ( #50 ) ) GLOBAL_UNIT_ASSIGNED_CONTEXT ( ( #86, #72, #13 ) ) REPRESENTATION_CONTEXT ( 'NONE', 'WORKASPACE' ) );
#86 =( LENGTH_UNIT ( ) NAMED_UNIT ( * ) SI_UNIT ( .MILLI., .METRE. ) );
#87 = ORIENTED_EDGE ( 'NONE', *, *, #22, .F. ) ;
#88 = EDGE_CURVE ( 'NONE', #191, #199, #119, .T. ) ;
#89 = CIRCLE ( 'NONE', #29, 68.78000000000000100 ) ;
#90 = EDGE_LOOP ( 'NONE', ( #136, #175, #145, #160 ) ) ;
#91 = ADVANCED_BREP_SHAPE_REPRESENTATION ( '155471', ( #121, #114 ), #164 ) ;
#92 = VERTEX_POINT ( 'NONE', #93 ) ;
#93 = CARTESIAN_POINT ( 'NONE',  ( -2.181979620400120700, 10.00000000000000000, 4.336808689942017700E-015 ) ) ;
#94 = CLOSED_SHELL ( 'NONE', ( #195, #134, #108, #193, #120, #82 ) ) ;
#95 = AXIS2_PLACEMENT_3D ( 'NONE', #129, #202, #35 ) ;
#96 = CARTESIAN_POINT ( 'NONE',  ( -2.181979620400120300, 10.00000000000000000, 10.00000000000000000 ) ) ;
#97 = ORIENTED_EDGE ( 'NONE', *, *, #169, .T. ) ;
#98 = EDGE_CURVE ( 'NONE', #106, #92, #73, .T. ) ;
#99 = FACE_OUTER_BOUND ( 'NONE', #54, .T. ) ;
#100 = PLANE ( 'NONE',  #133 ) ;
#101 = EDGE_CURVE ( 'NONE', #106, #47, #4, .T. ) ;
#102 = DIRECTION ( 'NONE',  ( -0.0000000000000000000, -1.000000000000000000, -0.0000000000000000000 ) ) ;
#103 = ORIENTED_EDGE ( 'NONE', *, *, #101, .F. ) ;
#104 = FACE_OUTER_BOUND ( 'NONE', #80, .T. ) ;
#105 = DIRECTION ( 'NONE',  ( 0.0000000000000000000, 1.000000000000000000, 0.0000000000000000000 ) ) ;
#106 = VERTEX_POINT ( 'NONE', #141 ) ;
#107 = DIRECTION ( 'NONE',  ( -1.000000000000000000, 0.0000000000000000000, 0.0000000000000000000 ) ) ;
#108 = ADVANCED_FACE ( 'NONE', ( #30 ), #100, .F. ) ;
#109 = AXIS2_PLACEMENT_3D ( 'NONE', #84, #8, #188 ) ;
#110 = COLOUR_RGB ( '',1.000000000000000000, 1.000000000000000000, 1.000000000000000000 ) ;
#111 = CARTESIAN_POINT ( 'NONE',  ( 0.0000000000000000000, 10.00000000000000000, 0.0000000000000000000 ) ) ;
#112 = ORIENTED_EDGE ( 'NONE', *, *, #178, .F. ) ;
#113 = DIRECTION ( 'NONE',  ( 0.0000000000000000000, 0.0000000000000000000, 1.000000000000000000 ) ) ;
#114 = AXIS2_PLACEMENT_3D ( 'NONE', #150, #78, #2 ) ;
#115 = EDGE_CURVE ( 'NONE', #62, #137, #132, .T. ) ;
#116 = DIRECTION ( 'NONE',  ( -0.0000000000000000000, -1.000000000000000000, -0.0000000000000000000 ) ) ;
#117 = DIRECTION ( 'NONE',  ( -0.0000000000000000000, -1.000000000000000000, -0.0000000000000000000 ) ) ;
#118 = ORIENTED_EDGE ( 'NONE', *, *, #169, .F. ) ;
#119 = LINE ( 'NONE', #135, #14 ) ;
#120 = ADVANCED_FACE ( 'NONE', ( #99 ), #123, .T. ) ;
#121 = MANIFOLD_SOLID_BREP ( 'Í¹Ì¨-À­Éì1', #94 ) ;
#122 = ORIENTED_EDGE ( 'NONE', *, *, #49, .F. ) ;
#123 = PLANE ( 'NONE',  #64 ) ;
#124 = PRODUCT_RELATED_PRODUCT_CATEGORY ( 'part', '', ( #70 ) ) ;
#125 = CARTESIAN_POINT ( 'NONE',  ( 6.123233995736766300E-016, 0.0000000000000000000, 10.00000000000000000 ) ) ;
#126 = ORIENTED_EDGE ( 'NONE', *, *, #88, .T. ) ;
#127 = APPLICATION_PROTOCOL_DEFINITION ( 'draft international standard', 'automotive_design', 1998, #45 ) ;
#128 = SURFACE_STYLE_FILL_AREA ( #1 ) ;
#129 = CARTESIAN_POINT ( 'NONE',  ( 0.0000000000000000000, 10.00000000000000000, 0.0000000000000000000 ) ) ;
#130 = DIRECTION ( 'NONE',  ( 0.0000000000000000000, 0.0000000000000000000, -1.000000000000000000 ) ) ;
#131 = EDGE_LOOP ( 'NONE', ( #153, #18, #118, #87 ) ) ;
#132 = LINE ( 'NONE', #189, #180 ) ;
#133 = AXIS2_PLACEMENT_3D ( 'NONE', #194, #130, #158 ) ;
#134 = ADVANCED_FACE ( 'NONE', ( #104 ), #5, .F. ) ;
#135 = CARTESIAN_POINT ( 'NONE',  ( 6.123233995736766300E-016, 10.00000000000000000, 10.00000000000000000 ) ) ;
#136 = ORIENTED_EDGE ( 'NONE', *, *, #77, .T. ) ;
#137 = VERTEX_POINT ( 'NONE', #154 ) ;
#138 = PRODUCT_DEFINITION_SHAPE ( 'NONE', 'NONE',  #147 ) ;
#139 = FACE_OUTER_BOUND ( 'NONE', #142, .T. ) ;
#140 = DIRECTION ( 'NONE',  ( -0.0000000000000000000, -1.000000000000000000, -0.0000000000000000000 ) ) ;
#141 = CARTESIAN_POINT ( 'NONE',  ( 0.0000000000000000000, 10.00000000000000000, 0.0000000000000000000 ) ) ;
#142 = EDGE_LOOP ( 'NONE', ( #68, #103, #21, #126 ) ) ;
#143 = PLANE ( 'NONE',  #109 ) ;
#144 = FILL_AREA_STYLE ('',( #192 ) ) ;
#145 = ORIENTED_EDGE ( 'NONE', *, *, #98, .F. ) ;
#146 = ORIENTED_EDGE ( 'NONE', *, *, #88, .F. ) ;
#147 = PRODUCT_DEFINITION ( 'Î´Öª', '', #204, #170 ) ;
#148 =( NAMED_UNIT ( * ) SI_UNIT ( $, .STERADIAN. ) SOLID_ANGLE_UNIT ( ) );
#149 = ORIENTED_EDGE ( 'NONE', *, *, #115, .F. ) ;
#150 = CARTESIAN_POINT ( 'NONE',  ( 0.0000000000000000000, 0.0000000000000000000, 0.0000000000000000000 ) ) ;
#151 = SURFACE_SIDE_STYLE ('',( #183 ) ) ;
#152 = EDGE_CURVE ( 'NONE', #92, #32, #173, .T. ) ;
#153 = ORIENTED_EDGE ( 'NONE', *, *, #77, .F. ) ;
#154 = CARTESIAN_POINT ( 'NONE',  ( -2.181979620400120300, 0.0000000000000000000, 10.00000000000000000 ) ) ;
#155 = CARTESIAN_POINT ( 'NONE',  ( 6.123233995736766300E-016, 0.0000000000000000000, 10.00000000000000000 ) ) ;
#156 = COLOUR_RGB ( '',1.000000000000000000, 1.000000000000000000, 1.000000000000000000 ) ;
#157 = VECTOR ( 'NONE', #107, 1000.000000000000000 ) ;
#158 = DIRECTION ( 'NONE',  ( -1.000000000000000000, 0.0000000000000000000, -0.0000000000000000000 ) ) ;
#159 = CARTESIAN_POINT ( 'NONE',  ( 6.123233995736766300E-016, 10.00000000000000000, 10.00000000000000000 ) ) ;
#160 = ORIENTED_EDGE ( 'NONE', *, *, #101, .T. ) ;
#161 = VECTOR ( 'NONE', #25, 1000.000000000000000 ) ;
#162 = AXIS2_PLACEMENT_3D ( 'NONE', #167, #15, #23 ) ;
#163 = SHAPE_DEFINITION_REPRESENTATION ( #138, #91 ) ;
#164 =( GEOMETRIC_REPRESENTATION_CONTEXT ( 3 ) GLOBAL_UNCERTAINTY_ASSIGNED_CONTEXT ( ( #172 ) ) GLOBAL_UNIT_ASSIGNED_CONTEXT ( ( #81, #168, #148 ) ) REPRESENTATION_CONTEXT ( 'NONE', 'WORKASPACE' ) );
#165 =( NAMED_UNIT ( * ) PLANE_ANGLE_UNIT ( ) SI_UNIT ( $, .RADIAN. ) );
#166 =( NAMED_UNIT ( * ) SI_UNIT ( $, .STERADIAN. ) SOLID_ANGLE_UNIT ( ) );
#167 = CARTESIAN_POINT ( 'NONE',  ( -70.78000000000001500, 0.0000000000000000000, 5.000000000000008000 ) ) ;
#168 =( NAMED_UNIT ( * ) PLANE_ANGLE_UNIT ( ) SI_UNIT ( $, .RADIAN. ) );
#169 = EDGE_CURVE ( 'NONE', #137, #199, #59, .T. ) ;
#170 = PRODUCT_DEFINITION_CONTEXT ( 'detailed design', #31, 'design' ) ;
#171 = DIRECTION ( 'NONE',  ( -6.123233995736766000E-017, -0.0000000000000000000, -1.000000000000000000 ) ) ;
#172 = UNCERTAINTY_MEASURE_WITH_UNIT (LENGTH_MEASURE( 1.000000000000000100E-005 ), #81, 'distance_accuracy_value', 'NONE');
#173 = LINE ( 'NONE', #60, #179 ) ;
#174 = STYLED_ITEM ( 'NONE', ( #26 ), #121 ) ;
#175 = ORIENTED_EDGE ( 'NONE', *, *, #152, .F. ) ;
#176 = FACE_OUTER_BOUND ( 'NONE', #90, .T. ) ;
#177 = ORIENTED_EDGE ( 'NONE', *, *, #98, .T. ) ;
#178 = EDGE_CURVE ( 'NONE', #92, #62, #89, .T. ) ;
#179 = VECTOR ( 'NONE', #182, 1000.000000000000000 ) ;
#180 = VECTOR ( 'NONE', #116, 1000.000000000000000 ) ;
#181 = VECTOR ( 'NONE', #117, 1000.000000000000000 ) ;
#182 = DIRECTION ( 'NONE',  ( -0.0000000000000000000, -1.000000000000000000, -0.0000000000000000000 ) ) ;
#183 = SURFACE_STYLE_FILL_AREA ( #144 ) ;
#184 = DIRECTION ( 'NONE',  ( 0.0000000000000000000, 0.0000000000000000000, -1.000000000000000000 ) ) ;
#185 = EDGE_LOOP ( 'NONE', ( #97, #146, #122, #51 ) ) ;
#186 = STYLED_ITEM ( 'NONE', ( #9 ), #91 ) ;
#187 = SURFACE_SIDE_STYLE ('',( #128 ) ) ;
#188 = DIRECTION ( 'NONE',  ( 1.000000000000000000, 0.0000000000000000000, -0.0000000000000000000 ) ) ;
#189 = CARTESIAN_POINT ( 'NONE',  ( -2.181979620400120300, 10.00000000000000000, 10.00000000000000000 ) ) ;
#190 = SURFACE_STYLE_USAGE ( .BOTH. , #187 ) ;
#191 = VERTEX_POINT ( 'NONE', #159 ) ;
#192 = FILL_AREA_STYLE_COLOUR ( '', #110 ) ;
#193 = ADVANCED_FACE ( 'NONE', ( #139 ), #37, .F. ) ;
#194 = CARTESIAN_POINT ( 'NONE',  ( 6.123233995736766300E-016, 10.00000000000000000, 10.00000000000000000 ) ) ;
#195 = ADVANCED_FACE ( 'NONE', ( #176 ), #143, .F. ) ;
#196 =( GEOMETRIC_REPRESENTATION_CONTEXT ( 3 ) GLOBAL_UNCERTAINTY_ASSIGNED_CONTEXT ( ( #39 ) ) GLOBAL_UNIT_ASSIGNED_CONTEXT ( ( #76, #165, #166 ) ) REPRESENTATION_CONTEXT ( 'NONE', 'WORKASPACE' ) );
#197 = FILL_AREA_STYLE_COLOUR ( '', #156 ) ;
#198 = DIRECTION ( 'NONE',  ( -6.123233995736766000E-017, -0.0000000000000000000, -1.000000000000000000 ) ) ;
#199 = VERTEX_POINT ( 'NONE', #155 ) ;
#200 = VECTOR ( 'NONE', #198, 1000.000000000000000 ) ;
#201 = APPLICATION_PROTOCOL_DEFINITION ( 'draft international standard', 'automotive_design', 1998, #31 ) ;
#202 = DIRECTION ( 'NONE',  ( -1.000000000000000000, 0.0000000000000000000, 6.123233995736766000E-017 ) ) ;
#203 = ORIENTED_EDGE ( 'NONE', *, *, #178, .T. ) ;
#204 = PRODUCT_DEFINITION_FORMATION_WITH_SPECIFIED_SOURCE ( 'ÈÎºÎ', '', #70, .NOT_KNOWN. ) ;
ENDSEC;
END-ISO-10303-21;
