ISO-10303-21;
HEADER;
FILE_DESCRIPTION (( 'STEP AP214' ),
    '1' );
FILE_NAME ('155477.STEP',
    '2019-07-03T07:31:36',
    ( 'user' ),
    ( 'Î¢ÈíÖÐ¹ú' ),
    'SwSTEP 2.0',
    'SolidWorks 2016',
    '' );
FILE_SCHEMA (( 'AUTOMOTIVE_DESIGN' ));
ENDSEC;

DATA;
#1 =( LENGTH_UNIT ( ) NAMED_UNIT ( * ) SI_UNIT ( .MILLI., .METRE. ) );
#2 =( LENGTH_UNIT ( ) NAMED_UNIT ( * ) SI_UNIT ( .MILLI., .METRE. ) );
#3 = MANIFOLD_SOLID_BREP ( 'Í¹Ì¨-À­Éì1', #162 ) ;
#4 = PRESENTATION_STYLE_ASSIGNMENT (( #199 ) ) ;
#5 = DIRECTION ( 'NONE',  ( 0.0000000000000000000, -0.0000000000000000000, 1.000000000000000000 ) ) ;
#6 = PLANE ( 'NONE',  #198 ) ;
#7 = LINE ( 'NONE', #116, #101 ) ;
#8 = FACE_OUTER_BOUND ( 'NONE', #62, .T. ) ;
#9 = ADVANCED_FACE ( 'NONE', ( #71 ), #35, .F. ) ;
#10 = ADVANCED_FACE ( 'NONE', ( #136 ), #6, .F. ) ;
#11 = ORIENTED_EDGE ( 'NONE', *, *, #49, .F. ) ;
#12 = ADVANCED_FACE ( 'NONE', ( #134 ), #48, .F. ) ;
#13 = VECTOR ( 'NONE', #18, 1000.000000000000000 ) ;
#14 = SURFACE_STYLE_USAGE ( .BOTH. , #184 ) ;
#15 = APPLICATION_CONTEXT ( 'automotive_design' ) ;
#16 = ORIENTED_EDGE ( 'NONE', *, *, #25, .F. ) ;
#17 = PRODUCT_DEFINITION_SHAPE ( 'NONE', 'NONE',  #40 ) ;
#18 = DIRECTION ( 'NONE',  ( -0.0000000000000000000, -1.000000000000000000, -0.0000000000000000000 ) ) ;
#19 = DIRECTION ( 'NONE',  ( 0.0000000000000000000, 1.000000000000000000, 0.0000000000000000000 ) ) ;
#20 = AXIS2_PLACEMENT_3D ( 'NONE', #58, #203, #88 ) ;
#21 = DIRECTION ( 'NONE',  ( 0.0000000000000000000, 0.0000000000000000000, 1.000000000000000000 ) ) ;
#22 = ADVANCED_FACE ( 'NONE', ( #8 ), #85, .T. ) ;
#23 = LINE ( 'NONE', #187, #68 ) ;
#24 = LINE ( 'NONE', #118, #130 ) ;
#25 = EDGE_CURVE ( 'NONE', #177, #70, #151, .T. ) ;
#26 =( NAMED_UNIT ( * ) PLANE_ANGLE_UNIT ( ) SI_UNIT ( $, .RADIAN. ) );
#27 = PRODUCT_RELATED_PRODUCT_CATEGORY ( 'part', '', ( #196 ) ) ;
#28 = FILL_AREA_STYLE_COLOUR ( '', #93 ) ;
#29 =( NAMED_UNIT ( * ) PLANE_ANGLE_UNIT ( ) SI_UNIT ( $, .RADIAN. ) );
#30 = EDGE_CURVE ( 'NONE', #139, #123, #7, .T. ) ;
#31 = CARTESIAN_POINT ( 'NONE',  ( -13.44999999999999900, 20.00000000000000000, 5.000000000000000900 ) ) ;
#32 = CYLINDRICAL_SURFACE ( 'NONE', #105, 11.44999999999999800 ) ;
#33 = PRODUCT_DEFINITION_FORMATION_WITH_SPECIFIED_SOURCE ( 'ÈÎºÎ', '', #196, .NOT_KNOWN. ) ;
#34 =( NAMED_UNIT ( * ) SI_UNIT ( $, .STERADIAN. ) SOLID_ANGLE_UNIT ( ) );
#35 = PLANE ( 'NONE',  #185 ) ;
#36 = PRESENTATION_LAYER_ASSIGNMENT (  '', '', ( #127 ) ) ;
#37 = DIRECTION ( 'NONE',  ( -0.0000000000000000000, -1.000000000000000000, -0.0000000000000000000 ) ) ;
#38 = EDGE_CURVE ( 'NONE', #90, #177, #24, .T. ) ;
#39 = VECTOR ( 'NONE', #143, 1000.000000000000000 ) ;
#40 = PRODUCT_DEFINITION ( 'Î´Öª', '', #33, #142 ) ;
#41 = AXIS2_PLACEMENT_3D ( 'NONE', #120, #122, #129 ) ;
#42 = DIRECTION ( 'NONE',  ( -0.0000000000000000000, -1.000000000000000000, -0.0000000000000000000 ) ) ;
#43 = CARTESIAN_POINT ( 'NONE',  ( 0.0000000000000000000, 20.00000000000000000, 0.0000000000000000000 ) ) ;
#44 = VECTOR ( 'NONE', #190, 1000.000000000000000 ) ;
#45 = ORIENTED_EDGE ( 'NONE', *, *, #49, .T. ) ;
#46 = DIRECTION ( 'NONE',  ( -6.123233995736766000E-017, -0.0000000000000000000, -1.000000000000000000 ) ) ;
#47 =( NAMED_UNIT ( * ) PLANE_ANGLE_UNIT ( ) SI_UNIT ( $, .RADIAN. ) );
#48 = PLANE ( 'NONE',  #154 ) ;
#49 = EDGE_CURVE ( 'NONE', #70, #156, #117, .T. ) ;
#50 = VERTEX_POINT ( 'NONE', #111 ) ;
#51 = CARTESIAN_POINT ( 'NONE',  ( 0.0000000000000000000, 20.00000000000000000, 0.0000000000000000000 ) ) ;
#52 =( GEOMETRIC_REPRESENTATION_CONTEXT ( 3 ) GLOBAL_UNCERTAINTY_ASSIGNED_CONTEXT ( ( #138 ) ) GLOBAL_UNIT_ASSIGNED_CONTEXT ( ( #2, #26, #56 ) ) REPRESENTATION_CONTEXT ( 'NONE', 'WORKASPACE' ) );
#53 = ORIENTED_EDGE ( 'NONE', *, *, #192, .T. ) ;
#54 = AXIS2_PLACEMENT_3D ( 'NONE', #157, #165, #128 ) ;
#55 = SURFACE_SIDE_STYLE ('',( #119 ) ) ;
#56 =( NAMED_UNIT ( * ) SI_UNIT ( $, .STERADIAN. ) SOLID_ANGLE_UNIT ( ) );
#57 = DIRECTION ( 'NONE',  ( 1.000000000000000000, 0.0000000000000000000, 5.508119672047218800E-016 ) ) ;
#58 = CARTESIAN_POINT ( 'NONE',  ( -13.44999999999999900, 20.00000000000000000, 5.000000000000000900 ) ) ;
#59 = DIRECTION ( 'NONE',  ( -0.0000000000000000000, -1.000000000000000000, -0.0000000000000000000 ) ) ;
#60 = CARTESIAN_POINT ( 'NONE',  ( 0.0000000000000000000, 20.00000000000000000, 0.0000000000000000000 ) ) ;
#61 = EDGE_CURVE ( 'NONE', #123, #50, #80, .T. ) ;
#62 = EDGE_LOOP ( 'NONE', ( #92, #181, #132, #74 ) ) ;
#63 = VECTOR ( 'NONE', #59, 1000.000000000000000 ) ;
#64 = CARTESIAN_POINT ( 'NONE',  ( 6.123233995736766300E-016, 20.00000000000000000, 10.00000000000000000 ) ) ;
#65 = ORIENTED_EDGE ( 'NONE', *, *, #192, .F. ) ;
#66 = COLOUR_RGB ( '',1.000000000000000000, 1.000000000000000000, 1.000000000000000000 ) ;
#67 = EDGE_CURVE ( 'NONE', #50, #200, #79, .T. ) ;
#68 = VECTOR ( 'NONE', #42, 1000.000000000000000 ) ;
#69 = FACE_OUTER_BOUND ( 'NONE', #191, .T. ) ;
#70 = VERTEX_POINT ( 'NONE', #137 ) ;
#71 = FACE_OUTER_BOUND ( 'NONE', #112, .T. ) ;
#72 = LINE ( 'NONE', #161, #44 ) ;
#73 = CARTESIAN_POINT ( 'NONE',  ( 6.123233995736766300E-016, 0.0000000000000000000, 10.00000000000000000 ) ) ;
#74 = ORIENTED_EDGE ( 'NONE', *, *, #30, .T. ) ;
#75 = CARTESIAN_POINT ( 'NONE',  ( 0.0000000000000000000, 0.0000000000000000000, 0.0000000000000000000 ) ) ;
#76 = EDGE_CURVE ( 'NONE', #200, #139, #183, .T. ) ;
#77 = ORIENTED_EDGE ( 'NONE', *, *, #25, .T. ) ;
#78 = ORIENTED_EDGE ( 'NONE', *, *, #188, .T. ) ;
#79 = CIRCLE ( 'NONE', #133, 11.44999999999999800 ) ;
#80 = LINE ( 'NONE', #97, #189 ) ;
#81 = STYLED_ITEM ( 'NONE', ( #167 ), #3 ) ;
#82 = ORIENTED_EDGE ( 'NONE', *, *, #140, .T. ) ;
#83 = ORIENTED_EDGE ( 'NONE', *, *, #160, .F. ) ;
#84 = DIRECTION ( 'NONE',  ( -5.508119672047219800E-016, 0.0000000000000000000, -1.000000000000000000 ) ) ;
#85 = PLANE ( 'NONE',  #20 ) ;
#86 = ORIENTED_EDGE ( 'NONE', *, *, #188, .F. ) ;
#87 = ORIENTED_EDGE ( 'NONE', *, *, #173, .T. ) ;
#88 = DIRECTION ( 'NONE',  ( 0.0000000000000000000, -0.0000000000000000000, 1.000000000000000000 ) ) ;
#89 = EDGE_LOOP ( 'NONE', ( #100, #65, #99, #87 ) ) ;
#90 = VERTEX_POINT ( 'NONE', #75 ) ;
#91 = APPLICATION_CONTEXT ( 'automotive_design' ) ;
#92 = ORIENTED_EDGE ( 'NONE', *, *, #61, .T. ) ;
#93 = COLOUR_RGB ( '',1.000000000000000000, 1.000000000000000000, 1.000000000000000000 ) ;
#94 = PRODUCT_CONTEXT ( 'NONE', #15, 'mechanical' ) ;
#95 = DIRECTION ( 'NONE',  ( -1.000000000000000000, 0.0000000000000000000, -5.508119672047218800E-016 ) ) ;
#96 = VECTOR ( 'NONE', #115, 1000.000000000000000 ) ;
#97 = CARTESIAN_POINT ( 'NONE',  ( 0.0000000000000000000, 20.00000000000000000, 0.0000000000000000000 ) ) ;
#98 = PRESENTATION_LAYER_ASSIGNMENT (  '', '', ( #81 ) ) ;
#99 = ORIENTED_EDGE ( 'NONE', *, *, #61, .F. ) ;
#100 = ORIENTED_EDGE ( 'NONE', *, *, #38, .T. ) ;
#101 = VECTOR ( 'NONE', #178, 1000.000000000000000 ) ;
#102 = UNCERTAINTY_MEASURE_WITH_UNIT (LENGTH_MEASURE( 1.000000000000000100E-005 ), #1, 'distance_accuracy_value', 'NONE');
#103 =( LENGTH_UNIT ( ) NAMED_UNIT ( * ) SI_UNIT ( .MILLI., .METRE. ) );
#104 = SHAPE_DEFINITION_REPRESENTATION ( #17, #172 ) ;
#105 = AXIS2_PLACEMENT_3D ( 'NONE', #31, #114, #155 ) ;
#106 = ORIENTED_EDGE ( 'NONE', *, *, #30, .F. ) ;
#107 = CARTESIAN_POINT ( 'NONE',  ( 6.123233995736766300E-016, 0.0000000000000000000, 10.00000000000000000 ) ) ;
#108 = DIRECTION ( 'NONE',  ( -1.000000000000000000, 0.0000000000000000000, 5.508119672047219800E-016 ) ) ;
#109 = APPLICATION_PROTOCOL_DEFINITION ( 'draft international standard', 'automotive_design', 1998, #91 ) ;
#110 = ADVANCED_FACE ( 'NONE', ( #194 ), #32, .F. ) ;
#111 = CARTESIAN_POINT ( 'NONE',  ( -3.149393221756306500, 20.00000000000000000, -8.673617379884035500E-016 ) ) ;
#112 = EDGE_LOOP ( 'NONE', ( #195, #83, #11, #16 ) ) ;
#113 = ORIENTED_EDGE ( 'NONE', *, *, #76, .F. ) ;
#114 = DIRECTION ( 'NONE',  ( -0.0000000000000000000, -1.000000000000000000, -0.0000000000000000000 ) ) ;
#115 = DIRECTION ( 'NONE',  ( 1.000000000000000000, -0.0000000000000000000, -5.508119672047219800E-016 ) ) ;
#116 = CARTESIAN_POINT ( 'NONE',  ( 0.0000000000000000000, 20.00000000000000000, 0.0000000000000000000 ) ) ;
#117 = LINE ( 'NONE', #107, #96 ) ;
#118 = CARTESIAN_POINT ( 'NONE',  ( 0.0000000000000000000, 0.0000000000000000000, 0.0000000000000000000 ) ) ;
#119 = SURFACE_STYLE_FILL_AREA ( #179 ) ;
#120 = CARTESIAN_POINT ( 'NONE',  ( -13.44999999999999900, 0.0000000000000000000, 5.000000000000000900 ) ) ;
#121 = LINE ( 'NONE', #51, #63 ) ;
#122 = DIRECTION ( 'NONE',  ( -0.0000000000000000000, -1.000000000000000000, -0.0000000000000000000 ) ) ;
#123 = VERTEX_POINT ( 'NONE', #60 ) ;
#124 = FILL_AREA_STYLE ('',( #28 ) ) ;
#125 = LINE ( 'NONE', #148, #13 ) ;
#126 = EDGE_LOOP ( 'NONE', ( #45, #86, #113, #82 ) ) ;
#127 = STYLED_ITEM ( 'NONE', ( #4 ), #172 ) ;
#128 = DIRECTION ( 'NONE',  ( 1.000000000000000000, 0.0000000000000000000, 0.0000000000000000000 ) ) ;
#129 = DIRECTION ( 'NONE',  ( 0.0000000000000000000, 0.0000000000000000000, 1.000000000000000000 ) ) ;
#130 = VECTOR ( 'NONE', #95, 1000.000000000000000 ) ;
#131 = UNCERTAINTY_MEASURE_WITH_UNIT (LENGTH_MEASURE( 1.000000000000000100E-005 ), #103, 'distance_accuracy_value', 'NONE');
#132 = ORIENTED_EDGE ( 'NONE', *, *, #76, .T. ) ;
#133 = AXIS2_PLACEMENT_3D ( 'NONE', #146, #37, #21 ) ;
#134 = FACE_OUTER_BOUND ( 'NONE', #89, .T. ) ;
#135 = LINE ( 'NONE', #174, #171 ) ;
#136 = FACE_OUTER_BOUND ( 'NONE', #126, .T. ) ;
#137 = CARTESIAN_POINT ( 'NONE',  ( -3.149393221756303900, 0.0000000000000000000, 10.00000000000000200 ) ) ;
#138 = UNCERTAINTY_MEASURE_WITH_UNIT (LENGTH_MEASURE( 1.000000000000000100E-005 ), #2, 'distance_accuracy_value', 'NONE');
#139 = VERTEX_POINT ( 'NONE', #64 ) ;
#140 = EDGE_CURVE ( 'NONE', #200, #70, #72, .T. ) ;
#141 = CARTESIAN_POINT ( 'NONE',  ( 6.123233995736766300E-016, 20.00000000000000000, 10.00000000000000000 ) ) ;
#142 = PRODUCT_DEFINITION_CONTEXT ( 'detailed design', #91, 'design' ) ;
#143 = DIRECTION ( 'NONE',  ( 1.000000000000000000, -0.0000000000000000000, -5.508119672047219800E-016 ) ) ;
#144 = CARTESIAN_POINT ( 'NONE',  ( 0.0000000000000000000, 20.00000000000000000, 0.0000000000000000000 ) ) ;
#145 =( GEOMETRIC_REPRESENTATION_CONTEXT ( 3 ) GLOBAL_UNCERTAINTY_ASSIGNED_CONTEXT ( ( #131 ) ) GLOBAL_UNIT_ASSIGNED_CONTEXT ( ( #103, #29, #34 ) ) REPRESENTATION_CONTEXT ( 'NONE', 'WORKASPACE' ) );
#146 = CARTESIAN_POINT ( 'NONE',  ( -13.44999999999999900, 20.00000000000000000, 5.000000000000000900 ) ) ;
#147 = AXIS2_PLACEMENT_3D ( 'NONE', #43, #169, #186 ) ;
#148 = CARTESIAN_POINT ( 'NONE',  ( -3.149393221756306500, 20.00000000000000000, -8.673617379884035500E-016 ) ) ;
#149 = DIRECTION ( 'NONE',  ( -1.000000000000000000, 0.0000000000000000000, -5.508119672047218800E-016 ) ) ;
#150 = ORIENTED_EDGE ( 'NONE', *, *, #67, .F. ) ;
#151 = CIRCLE ( 'NONE', #41, 11.44999999999999800 ) ;
#152 = CARTESIAN_POINT ( 'NONE',  ( 6.123233995736766300E-016, 20.00000000000000000, 10.00000000000000000 ) ) ;
#153 = APPLICATION_PROTOCOL_DEFINITION ( 'draft international standard', 'automotive_design', 1998, #15 ) ;
#154 = AXIS2_PLACEMENT_3D ( 'NONE', #144, #170, #57 ) ;
#155 = DIRECTION ( 'NONE',  ( 0.0000000000000000000, 0.0000000000000000000, -1.000000000000000000 ) ) ;
#156 = VERTEX_POINT ( 'NONE', #73 ) ;
#157 = CARTESIAN_POINT ( 'NONE',  ( 0.0000000000000000000, 0.0000000000000000000, 0.0000000000000000000 ) ) ;
#158 =( GEOMETRIC_REPRESENTATION_CONTEXT ( 3 ) GLOBAL_UNCERTAINTY_ASSIGNED_CONTEXT ( ( #102 ) ) GLOBAL_UNIT_ASSIGNED_CONTEXT ( ( #1, #47, #193 ) ) REPRESENTATION_CONTEXT ( 'NONE', 'WORKASPACE' ) );
#159 = FILL_AREA_STYLE_COLOUR ( '', #66 ) ;
#160 = EDGE_CURVE ( 'NONE', #156, #90, #135, .T. ) ;
#161 = CARTESIAN_POINT ( 'NONE',  ( -3.149393221756303900, 20.00000000000000000, 10.00000000000000200 ) ) ;
#162 = CLOSED_SHELL ( 'NONE', ( #12, #110, #10, #180, #22, #9 ) ) ;
#163 = MECHANICAL_DESIGN_GEOMETRIC_PRESENTATION_REPRESENTATION (  '', ( #81 ), #158 ) ;
#164 = EDGE_LOOP ( 'NONE', ( #77, #176, #150, #53 ) ) ;
#165 = DIRECTION ( 'NONE',  ( 0.0000000000000000000, 0.0000000000000000000, 1.000000000000000000 ) ) ;
#166 = PLANE ( 'NONE',  #147 ) ;
#167 = PRESENTATION_STYLE_ASSIGNMENT (( #14 ) ) ;
#168 = CARTESIAN_POINT ( 'NONE',  ( -3.149393221756303900, 20.00000000000000000, 10.00000000000000200 ) ) ;
#169 = DIRECTION ( 'NONE',  ( -1.000000000000000000, 0.0000000000000000000, 6.123233995736766000E-017 ) ) ;
#170 = DIRECTION ( 'NONE',  ( -5.508119672047218800E-016, 0.0000000000000000000, 1.000000000000000000 ) ) ;
#171 = VECTOR ( 'NONE', #46, 1000.000000000000000 ) ;
#172 = ADVANCED_BREP_SHAPE_REPRESENTATION ( '155477', ( #3, #54 ), #145 ) ;
#173 = EDGE_CURVE ( 'NONE', #123, #90, #121, .T. ) ;
#174 = CARTESIAN_POINT ( 'NONE',  ( 0.0000000000000000000, 0.0000000000000000000, 0.0000000000000000000 ) ) ;
#175 = ORIENTED_EDGE ( 'NONE', *, *, #160, .T. ) ;
#176 = ORIENTED_EDGE ( 'NONE', *, *, #140, .F. ) ;
#177 = VERTEX_POINT ( 'NONE', #182 ) ;
#178 = DIRECTION ( 'NONE',  ( -6.123233995736766000E-017, -0.0000000000000000000, -1.000000000000000000 ) ) ;
#179 = FILL_AREA_STYLE ('',( #159 ) ) ;
#180 = ADVANCED_FACE ( 'NONE', ( #69 ), #166, .F. ) ;
#181 = ORIENTED_EDGE ( 'NONE', *, *, #67, .T. ) ;
#182 = CARTESIAN_POINT ( 'NONE',  ( -3.149393221756306500, 0.0000000000000000000, -8.673617379884035500E-016 ) ) ;
#183 = LINE ( 'NONE', #141, #39 ) ;
#184 = SURFACE_SIDE_STYLE ('',( #202 ) ) ;
#185 = AXIS2_PLACEMENT_3D ( 'NONE', #204, #19, #5 ) ;
#186 = DIRECTION ( 'NONE',  ( 6.123233995736766000E-017, 0.0000000000000000000, 1.000000000000000000 ) ) ;
#187 = CARTESIAN_POINT ( 'NONE',  ( 6.123233995736766300E-016, 20.00000000000000000, 10.00000000000000000 ) ) ;
#188 = EDGE_CURVE ( 'NONE', #139, #156, #23, .T. ) ;
#189 = VECTOR ( 'NONE', #149, 1000.000000000000000 ) ;
#190 = DIRECTION ( 'NONE',  ( -0.0000000000000000000, -1.000000000000000000, -0.0000000000000000000 ) ) ;
#191 = EDGE_LOOP ( 'NONE', ( #175, #201, #106, #78 ) ) ;
#192 = EDGE_CURVE ( 'NONE', #50, #177, #125, .T. ) ;
#193 =( NAMED_UNIT ( * ) SI_UNIT ( $, .STERADIAN. ) SOLID_ANGLE_UNIT ( ) );
#194 = FACE_OUTER_BOUND ( 'NONE', #164, .T. ) ;
#195 = ORIENTED_EDGE ( 'NONE', *, *, #38, .F. ) ;
#196 = PRODUCT ( '155477', '155477', '', ( #94 ) ) ;
#197 = MECHANICAL_DESIGN_GEOMETRIC_PRESENTATION_REPRESENTATION (  '', ( #127 ), #52 ) ;
#198 = AXIS2_PLACEMENT_3D ( 'NONE', #152, #84, #108 ) ;
#199 = SURFACE_STYLE_USAGE ( .BOTH. , #55 ) ;
#200 = VERTEX_POINT ( 'NONE', #168 ) ;
#201 = ORIENTED_EDGE ( 'NONE', *, *, #173, .F. ) ;
#202 = SURFACE_STYLE_FILL_AREA ( #124 ) ;
#203 = DIRECTION ( 'NONE',  ( 0.0000000000000000000, 1.000000000000000000, 0.0000000000000000000 ) ) ;
#204 = CARTESIAN_POINT ( 'NONE',  ( -13.44999999999999900, 0.0000000000000000000, 5.000000000000000900 ) ) ;
ENDSEC;
END-ISO-10303-21;
