ISO-10303-21;
HEADER;
FILE_DESCRIPTION (( 'STEP AP203' ),
    '1' );
FILE_NAME ('155520.STEP',
    '2024-05-13T02:50:40',
    ( '' ),
    ( '' ),
    'SwSTEP 2.0',
    'SolidWorks 2020',
    '' );
FILE_SCHEMA (( 'CONFIG_CONTROL_DESIGN' ));
ENDSEC;

DATA;
#1 = ORIENTED_EDGE ( 'NONE', *, *, #229, .T. ) ;
#2 = ADVANCED_FACE ( 'NONE', ( #124 ), #230, .F. ) ;
#3 = ORIENTED_EDGE ( 'NONE', *, *, #79, .F. ) ;
#4 = ORIENTED_EDGE ( 'NONE', *, *, #49, .F. ) ;
#5 = VECTOR ( 'NONE', #23, 1000.000000000000000 ) ;
#6 = EDGE_CURVE ( 'NONE', #231, #67, #193, .T. ) ;
#7 = CIRCLE ( 'NONE', #240, 25.84999999999999787 ) ;
#8 =( NAMED_UNIT ( * ) PLANE_ANGLE_UNIT ( ) SI_UNIT ( $, .RADIAN. ) );
#9 = PRODUCT_DEFINITION ( 'Î´Öª', '', #80, #238 ) ;
#10 = CARTESIAN_POINT ( 'NONE',  ( 0.000000000000000000, 0.000000000000000000, 10.00000000000000000 ) ) ;
#11 = DIRECTION ( 'NONE',  ( 1.000000000000000000, 0.000000000000000000, 0.000000000000000000 ) ) ;
#12 = CARTESIAN_POINT ( 'NONE',  ( -25.36183155846595838, -5.000000000000000888, 10.00000000000000000 ) ) ;
#13 = AXIS2_PLACEMENT_3D ( 'NONE', #246, #61, #20 ) ;
#14 = PERSON_AND_ORGANIZATION_ROLE ( 'creator' ) ;
#15 = APPROVAL_DATE_TIME ( #206, #163 ) ;
#16 = APPROVAL ( #142, 'Î´Ö¸¶¨' ) ;
#17 = CC_DESIGN_APPROVAL ( #16, ( #9 ) ) ;
#18 = VERTEX_POINT ( 'NONE', #126 ) ;
#19 = APPROVAL_ROLE ( '' ) ;
#20 = DIRECTION ( 'NONE',  ( 1.000000000000000000, 0.000000000000000000, 0.000000000000000000 ) ) ;
#21 = PERSON_AND_ORGANIZATION_ROLE ( 'design_supplier' ) ;
#22 = ORIENTED_EDGE ( 'NONE', *, *, #178, .F. ) ;
#23 = DIRECTION ( 'NONE',  ( -0.000000000000000000, -0.000000000000000000, -1.000000000000000000 ) ) ;
#24 = APPLICATION_CONTEXT ( 'configuration controlled 3d designs of mechanical parts and assemblies' ) ;
#25 = COORDINATED_UNIVERSAL_TIME_OFFSET ( 8, 0, .AHEAD. ) ;
#26 = ORIENTED_EDGE ( 'NONE', *, *, #195, .F. ) ;
#27 = DIRECTION ( 'NONE',  ( -0.000000000000000000, -0.000000000000000000, -1.000000000000000000 ) ) ;
#28 = ADVANCED_FACE ( 'NONE', ( #210 ), #224, .T. ) ;
#29 = EDGE_CURVE ( 'NONE', #65, #89, #271, .T. ) ;
#30 = DIRECTION ( 'NONE',  ( 0.000000000000000000, -0.000000000000000000, 1.000000000000000000 ) ) ;
#31 = AXIS2_PLACEMENT_3D ( 'NONE', #98, #161, #84 ) ;
#32 = AXIS2_PLACEMENT_3D ( 'NONE', #41, #86, #256 ) ;
#33 = DIRECTION ( 'NONE',  ( 1.000000000000000000, 0.000000000000000000, -0.000000000000000000 ) ) ;
#34 = EDGE_CURVE ( 'NONE', #228, #65, #102, .T. ) ;
#35 = LINE ( 'NONE', #95, #51 ) ;
#36 = DATE_AND_TIME ( #184, #69 ) ;
#37 = CALENDAR_DATE ( 2024, 13, 5 ) ;
#38 = CC_DESIGN_PERSON_AND_ORGANIZATION_ASSIGNMENT ( #208, #78, ( #114 ) ) ;
#39 = ORIENTED_EDGE ( 'NONE', *, *, #195, .T. ) ;
#40 = COORDINATED_UNIVERSAL_TIME_OFFSET ( 8, 0, .AHEAD. ) ;
#41 = CARTESIAN_POINT ( 'NONE',  ( -25.36183155846595838, 5.000000000000000888, 10.00000000000000000 ) ) ;
#42 = ORIENTED_EDGE ( 'NONE', *, *, #229, .F. ) ;
#43 = CARTESIAN_POINT ( 'NONE',  ( -25.36183155846595838, -5.000000000000000888, 0.000000000000000000 ) ) ;
#44 = ORIENTED_EDGE ( 'NONE', *, *, #178, .T. ) ;
#45 = EDGE_LOOP ( 'NONE', ( #42, #88, #245, #146 ) ) ;
#46 = DIRECTION ( 'NONE',  ( 1.000000000000000000, 0.000000000000000000, 0.000000000000000000 ) ) ;
#47 = CARTESIAN_POINT ( 'NONE',  ( -25.36183155846595838, -5.000000000000000888, 10.00000000000000000 ) ) ;
#48 = AXIS2_PLACEMENT_3D ( 'NONE', #133, #213, #99 ) ;
#49 = EDGE_CURVE ( 'NONE', #272, #231, #268, .T. ) ;
#50 = MANIFOLD_SOLID_BREP ( 'Í¹Ì¨-À­Éì1', #237 ) ;
#51 = VECTOR ( 'NONE', #73, 1000.000000000000000 ) ;
#52 = DIRECTION ( 'NONE',  ( -0.000000000000000000, -0.000000000000000000, -1.000000000000000000 ) ) ;
#53 = DIRECTION ( 'NONE',  ( -0.000000000000000000, -0.000000000000000000, -1.000000000000000000 ) ) ;
#54 = CARTESIAN_POINT ( 'NONE',  ( -23.36183155846596193, 5.000000000000000888, 0.000000000000000000 ) ) ;
#55 = APPROVAL_PERSON_ORGANIZATION ( #150, #163, #19 ) ;
#56 = APPLICATION_PROTOCOL_DEFINITION ( 'international standard', 'config_control_design', 1994, #24 ) ;
#57 = CC_DESIGN_PERSON_AND_ORGANIZATION_ASSIGNMENT ( #121, #244, ( #172 ) ) ;
#58 = DATE_AND_TIME ( #103, #198 ) ;
#59 = CARTESIAN_POINT ( 'NONE',  ( -25.84999999999999787, 0.000000000000000000, 0.000000000000000000 ) ) ;
#60 = PERSON_AND_ORGANIZATION_ROLE ( 'creator' ) ;
#61 = DIRECTION ( 'NONE',  ( 0.000000000000000000, 0.000000000000000000, 1.000000000000000000 ) ) ;
#62 = APPROVAL_STATUS ( 'not_yet_approved' ) ;
#63 = LINE ( 'NONE', #104, #5 ) ;
#64 = DATE_TIME_ROLE ( 'creation_date' ) ;
#65 = VERTEX_POINT ( 'NONE', #59 ) ;
#66 = VECTOR ( 'NONE', #164, 1000.000000000000000 ) ;
#67 = VERTEX_POINT ( 'NONE', #165 ) ;
#68 = EDGE_LOOP ( 'NONE', ( #252, #154, #212, #169 ) ) ;
#69 = LOCAL_TIME ( 10, 50, 40.00000000000000000, #145 ) ;
#70 = VECTOR ( 'NONE', #234, 1000.000000000000000 ) ;
#71 = PLANE ( 'NONE',  #196 ) ;
#72 = CARTESIAN_POINT ( 'NONE',  ( -25.36183155846595838, -5.000000000000000888, 10.00000000000000000 ) ) ;
#73 = DIRECTION ( 'NONE',  ( 1.000000000000000000, 0.000000000000000000, 0.000000000000000000 ) ) ;
#74 = CC_DESIGN_DATE_AND_TIME_ASSIGNMENT ( #36, #64, ( #9 ) ) ;
#75 = DIRECTION ( 'NONE',  ( -0.000000000000000000, 1.000000000000000000, -0.000000000000000000 ) ) ;
#76 = DIRECTION ( 'NONE',  ( -1.000000000000000000, 0.000000000000000000, 0.000000000000000000 ) ) ;
#77 = VECTOR ( 'NONE', #52, 1000.000000000000000 ) ;
#78 = PERSON_AND_ORGANIZATION_ROLE ( 'classification_officer' ) ;
#79 = EDGE_CURVE ( 'NONE', #232, #233, #265, .T. ) ;
#80 = PRODUCT_DEFINITION_FORMATION_WITH_SPECIFIED_SOURCE ( 'ÈÎºÎ', '', #172, .NOT_KNOWN. ) ;
#81 = CARTESIAN_POINT ( 'NONE',  ( -23.36183155846596193, 5.000000000000000888, 10.00000000000000000 ) ) ;
#82 = COORDINATED_UNIVERSAL_TIME_OFFSET ( 8, 0, .AHEAD. ) ;
#83 = CARTESIAN_POINT ( 'NONE',  ( 0.000000000000000000, 0.000000000000000000, 0.000000000000000000 ) ) ;
#84 = DIRECTION ( 'NONE',  ( 1.000000000000000000, 0.000000000000000000, 0.000000000000000000 ) ) ;
#85 = APPLICATION_CONTEXT ( 'configuration controlled 3d designs of mechanical parts and assemblies' ) ;
#86 = DIRECTION ( 'NONE',  ( 0.000000000000000000, -1.000000000000000000, 0.000000000000000000 ) ) ;
#87 = EDGE_CURVE ( 'NONE', #233, #65, #63, .T. ) ;
#88 = ORIENTED_EDGE ( 'NONE', *, *, #87, .T. ) ;
#89 = VERTEX_POINT ( 'NONE', #43 ) ;
#90 = AXIS2_PLACEMENT_3D ( 'NONE', #12, #217, #30 ) ;
#91 = CARTESIAN_POINT ( 'NONE',  ( -23.36183155846596193, 5.000000000000000888, 10.00000000000000000 ) ) ;
#92 = APPROVAL ( #127, 'Î´Ö¸¶¨' ) ;
#93 = LINE ( 'NONE', #251, #215 ) ;
#94 =( NAMED_UNIT ( * ) SI_UNIT ( $, .STERADIAN. ) SOLID_ANGLE_UNIT ( ) );
#95 = CARTESIAN_POINT ( 'NONE',  ( -25.36183155846595838, -5.000000000000000888, 0.000000000000000000 ) ) ;
#96 = CARTESIAN_POINT ( 'NONE',  ( -25.84999999999999787, 0.000000000000000000, 10.00000000000000000 ) ) ;
#97 = AXIS2_PLACEMENT_3D ( 'NONE', #174, #159, #111 ) ;
#98 = CARTESIAN_POINT ( 'NONE',  ( 0.000000000000000000, 0.000000000000000000, 0.000000000000000000 ) ) ;
#99 = DIRECTION ( 'NONE',  ( 1.000000000000000000, 0.000000000000000000, 0.000000000000000000 ) ) ;
#100 = ORGANIZATION ( 'Î´Ö¸¶¨', 'Î´Ö¸¶¨', '' ) ;
#101 = EDGE_LOOP ( 'NONE', ( #155, #1, #106, #110, #144 ) ) ;
#102 = CIRCLE ( 'NONE', #48, 25.84999999999999787 ) ;
#103 = CALENDAR_DATE ( 2024, 13, 5 ) ;
#104 = CARTESIAN_POINT ( 'NONE',  ( -25.84999999999999787, 0.000000000000000000, 10.00000000000000000 ) ) ;
#105 = PERSON_AND_ORGANIZATION ( #261, #100 ) ;
#106 = ORIENTED_EDGE ( 'NONE', *, *, #205, .T. ) ;
#107 = FACE_OUTER_BOUND ( 'NONE', #148, .T. ) ;
#108 = ORIENTED_EDGE ( 'NONE', *, *, #34, .T. ) ;
#109 = ADVANCED_FACE ( 'NONE', ( #107 ), #191, .F. ) ;
#110 = ORIENTED_EDGE ( 'NONE', *, *, #49, .T. ) ;
#111 = DIRECTION ( 'NONE',  ( 1.000000000000000000, 0.000000000000000000, -0.000000000000000000 ) ) ;
#112 = VECTOR ( 'NONE', #75, 1000.000000000000000 ) ;
#113 = DIRECTION ( 'NONE',  ( -1.000000000000000000, 0.000000000000000000, 0.000000000000000000 ) ) ;
#114 = SECURITY_CLASSIFICATION ( '', '', #143 ) ;
#115 = CARTESIAN_POINT ( 'NONE',  ( 0.000000000000000000, 0.000000000000000000, 10.00000000000000000 ) ) ;
#116 = PRODUCT_RELATED_PRODUCT_CATEGORY ( 'detail', '', ( #172 ) ) ;
#117 = PLANE ( 'NONE',  #90 ) ;
#118 = LINE ( 'NONE', #200, #203 ) ;
#119 = AXIS2_PLACEMENT_3D ( 'NONE', #115, #139, #33 ) ;
#120 = ORIENTED_EDGE ( 'NONE', *, *, #134, .T. ) ;
#121 = PERSON_AND_ORGANIZATION ( #261, #100 ) ;
#122 = EDGE_CURVE ( 'NONE', #231, #232, #93, .T. ) ;
#123 = LOCAL_TIME ( 10, 50, 40.00000000000000000, #40 ) ;
#124 = FACE_OUTER_BOUND ( 'NONE', #68, .T. ) ;
#125 = DATE_AND_TIME ( #247, #267 ) ;
#126 = CARTESIAN_POINT ( 'NONE',  ( -23.36183155846596193, -5.000000000000000888, 0.000000000000000000 ) ) ;
#127 = APPROVAL_STATUS ( 'not_yet_approved' ) ;
#128 = CARTESIAN_POINT ( 'NONE',  ( -25.36183155846595838, 5.000000000000000888, 0.000000000000000000 ) ) ;
#129 = ORIENTED_EDGE ( 'NONE', *, *, #205, .F. ) ;
#130 = ORIENTED_EDGE ( 'NONE', *, *, #29, .F. ) ;
#131 = EDGE_CURVE ( 'NONE', #67, #228, #270, .T. ) ;
#132 = LOCAL_TIME ( 10, 50, 40.00000000000000000, #25 ) ;
#133 = CARTESIAN_POINT ( 'NONE',  ( 0.000000000000000000, 0.000000000000000000, 0.000000000000000000 ) ) ;
#134 = EDGE_CURVE ( 'NONE', #194, #89, #192, .T. ) ;
#135 = VECTOR ( 'NONE', #27, 1000.000000000000000 ) ;
#136 = EDGE_CURVE ( 'NONE', #18, #67, #264, .T. ) ;
#137 = CARTESIAN_POINT ( 'NONE',  ( -23.36183155846596193, -5.000000000000000888, 10.00000000000000000 ) ) ;
#138 = APPROVAL_PERSON_ORGANIZATION ( #204, #16, #250 ) ;
#139 = DIRECTION ( 'NONE',  ( 0.000000000000000000, 0.000000000000000000, 1.000000000000000000 ) ) ;
#140 = CARTESIAN_POINT ( 'NONE',  ( -25.36183155846595838, 5.000000000000000888, 10.00000000000000000 ) ) ;
#141 = DIRECTION ( 'NONE',  ( -0.000000000000000000, -0.000000000000000000, -1.000000000000000000 ) ) ;
#142 = APPROVAL_STATUS ( 'not_yet_approved' ) ;
#143 = SECURITY_CLASSIFICATION_LEVEL ( 'unclassified' ) ;
#144 = ORIENTED_EDGE ( 'NONE', *, *, #122, .T. ) ;
#145 = COORDINATED_UNIVERSAL_TIME_OFFSET ( 8, 0, .AHEAD. ) ;
#146 = ORIENTED_EDGE ( 'NONE', *, *, #134, .F. ) ;
#147 = MECHANICAL_CONTEXT ( 'NONE', #85, 'mechanical' ) ;
#148 = EDGE_LOOP ( 'NONE', ( #168, #189, #167, #22, #130 ) ) ;
#149 = DIRECTION ( 'NONE',  ( 0.000000000000000000, 0.000000000000000000, 1.000000000000000000 ) ) ;
#150 = PERSON_AND_ORGANIZATION ( #261, #100 ) ;
#151 = VECTOR ( 'NONE', #218, 1000.000000000000000 ) ;
#152 = ORIENTED_EDGE ( 'NONE', *, *, #87, .F. ) ;
#153 = ORIENTED_EDGE ( 'NONE', *, *, #136, .T. ) ;
#154 = ORIENTED_EDGE ( 'NONE', *, *, #255, .F. ) ;
#155 = ORIENTED_EDGE ( 'NONE', *, *, #79, .T. ) ;
#156 = AXIS2_PLACEMENT_3D ( 'NONE', #83, #149, #46 ) ;
#157 = DIRECTION ( 'NONE',  ( 0.000000000000000000, 0.000000000000000000, 1.000000000000000000 ) ) ;
#158 = ADVANCED_FACE ( 'NONE', ( #263 ), #199, .T. ) ;
#159 = DIRECTION ( 'NONE',  ( 0.000000000000000000, 0.000000000000000000, 1.000000000000000000 ) ) ;
#160 = DIRECTION ( 'NONE',  ( 0.000000000000000000, 0.000000000000000000, 1.000000000000000000 ) ) ;
#161 = DIRECTION ( 'NONE',  ( 0.000000000000000000, 0.000000000000000000, 1.000000000000000000 ) ) ;
#162 = CC_DESIGN_APPROVAL ( #92, ( #80 ) ) ;
#163 = APPROVAL ( #62, 'Î´Ö¸¶¨' ) ;
#164 = DIRECTION ( 'NONE',  ( -0.000000000000000000, 1.000000000000000000, -0.000000000000000000 ) ) ;
#165 = CARTESIAN_POINT ( 'NONE',  ( -23.36183155846596193, 5.000000000000000888, 0.000000000000000000 ) ) ;
#166 = DATE_AND_TIME ( #181, #123 ) ;
#167 = ORIENTED_EDGE ( 'NONE', *, *, #136, .F. ) ;
#168 = ORIENTED_EDGE ( 'NONE', *, *, #34, .F. ) ;
#169 = ORIENTED_EDGE ( 'NONE', *, *, #6, .T. ) ;
#170 = AXIS2_PLACEMENT_3D ( 'NONE', #220, #53, #76 ) ;
#171 = CARTESIAN_POINT ( 'NONE',  ( 0.000000000000000000, 0.000000000000000000, 10.00000000000000000 ) ) ;
#172 = PRODUCT ( '155520', '155520', '', ( #147 ) ) ;
#173 = CC_DESIGN_PERSON_AND_ORGANIZATION_ASSIGNMENT ( #227, #14, ( #80 ) ) ;
#174 = CARTESIAN_POINT ( 'NONE',  ( 0.000000000000000000, 0.000000000000000000, 0.000000000000000000 ) ) ;
#175 = CARTESIAN_POINT ( 'NONE',  ( -25.36183155846595838, 5.000000000000000888, 0.000000000000000000 ) ) ;
#176 = CARTESIAN_POINT ( 'NONE',  ( -25.36183155846595838, 5.000000000000000888, 10.00000000000000000 ) ) ;
#177 = CARTESIAN_POINT ( 'NONE',  ( -23.36183155846596193, 5.000000000000000888, 10.00000000000000000 ) ) ;
#178 = EDGE_CURVE ( 'NONE', #89, #18, #35, .T. ) ;
#179 = LINE ( 'NONE', #202, #151 ) ;
#180 =( GEOMETRIC_REPRESENTATION_CONTEXT ( 3 ) GLOBAL_UNCERTAINTY_ASSIGNED_CONTEXT ( ( #216 ) ) GLOBAL_UNIT_ASSIGNED_CONTEXT ( ( #197, #8, #94 ) ) REPRESENTATION_CONTEXT ( 'NONE', 'WORKASPACE' ) );
#181 = CALENDAR_DATE ( 2024, 13, 5 ) ;
#182 = DIRECTION ( 'NONE',  ( -1.000000000000000000, -0.000000000000000000, -0.000000000000000000 ) ) ;
#183 = EDGE_LOOP ( 'NONE', ( #152, #3, #186, #108 ) ) ;
#184 = CALENDAR_DATE ( 2024, 13, 5 ) ;
#185 = AXIS2_PLACEMENT_3D ( 'NONE', #171, #274, #207 ) ;
#186 = ORIENTED_EDGE ( 'NONE', *, *, #255, .T. ) ;
#187 = APPROVAL_DATE_TIME ( #166, #92 ) ;
#188 = DIRECTION ( 'NONE',  ( -1.000000000000000000, -0.000000000000000000, -0.000000000000000000 ) ) ;
#189 = ORIENTED_EDGE ( 'NONE', *, *, #131, .F. ) ;
#190 = ADVANCED_BREP_SHAPE_REPRESENTATION ( '155520', ( #50, #31 ), #180 ) ;
#191 = PLANE ( 'NONE',  #97 ) ;
#192 = LINE ( 'NONE', #47, #135 ) ;
#193 = LINE ( 'NONE', #91, #70 ) ;
#194 = VERTEX_POINT ( 'NONE', #72 ) ;
#195 = EDGE_CURVE ( 'NONE', #272, #18, #118, .T. ) ;
#196 = AXIS2_PLACEMENT_3D ( 'NONE', #177, #113, #157 ) ;
#197 =( LENGTH_UNIT ( ) NAMED_UNIT ( * ) SI_UNIT ( .MILLI., .METRE. ) );
#198 = LOCAL_TIME ( 10, 50, 40.00000000000000000, #82 ) ;
#199 = CYLINDRICAL_SURFACE ( 'NONE', #170, 25.84999999999999787 ) ;
#200 = CARTESIAN_POINT ( 'NONE',  ( -23.36183155846596193, -5.000000000000000888, 10.00000000000000000 ) ) ;
#201 = ADVANCED_FACE ( 'NONE', ( #241 ), #117, .F. ) ;
#202 = CARTESIAN_POINT ( 'NONE',  ( -25.36183155846595838, -5.000000000000000888, 10.00000000000000000 ) ) ;
#203 = VECTOR ( 'NONE', #141, 1000.000000000000000 ) ;
#204 = PERSON_AND_ORGANIZATION ( #261, #100 ) ;
#205 = EDGE_CURVE ( 'NONE', #194, #272, #179, .T. ) ;
#206 = DATE_AND_TIME ( #37, #132 ) ;
#207 = DIRECTION ( 'NONE',  ( -1.000000000000000000, 0.000000000000000000, 0.000000000000000000 ) ) ;
#208 = PERSON_AND_ORGANIZATION ( #261, #100 ) ;
#209 = APPROVAL_DATE_TIME ( #58, #16 ) ;
#210 = FACE_OUTER_BOUND ( 'NONE', #183, .T. ) ;
#211 = APPLICATION_PROTOCOL_DEFINITION ( 'international standard', 'config_control_design', 1994, #85 ) ;
#212 = ORIENTED_EDGE ( 'NONE', *, *, #122, .F. ) ;
#213 = DIRECTION ( 'NONE',  ( 0.000000000000000000, 0.000000000000000000, 1.000000000000000000 ) ) ;
#214 = CC_DESIGN_DATE_AND_TIME_ASSIGNMENT ( #125, #223, ( #114 ) ) ;
#215 = VECTOR ( 'NONE', #182, 1000.000000000000000 ) ;
#216 = UNCERTAINTY_MEASURE_WITH_UNIT (LENGTH_MEASURE( 1.000000000000000082E-05 ), #197, 'distance_accuracy_value', 'NONE');
#217 = DIRECTION ( 'NONE',  ( 0.000000000000000000, 1.000000000000000000, 0.000000000000000000 ) ) ;
#218 = DIRECTION ( 'NONE',  ( 1.000000000000000000, 0.000000000000000000, 0.000000000000000000 ) ) ;
#219 = CC_DESIGN_SECURITY_CLASSIFICATION ( #114, ( #80 ) ) ;
#220 = CARTESIAN_POINT ( 'NONE',  ( 0.000000000000000000, 0.000000000000000000, 10.00000000000000000 ) ) ;
#221 = CC_DESIGN_PERSON_AND_ORGANIZATION_ASSIGNMENT ( #222, #60, ( #9 ) ) ;
#222 = PERSON_AND_ORGANIZATION ( #261, #100 ) ;
#223 = DATE_TIME_ROLE ( 'classification_date' ) ;
#224 = CYLINDRICAL_SURFACE ( 'NONE', #185, 25.84999999999999787 ) ;
#225 = APPROVAL_ROLE ( '' ) ;
#226 = ORIENTED_EDGE ( 'NONE', *, *, #6, .F. ) ;
#227 = PERSON_AND_ORGANIZATION ( #261, #100 ) ;
#228 = VERTEX_POINT ( 'NONE', #175 ) ;
#229 = EDGE_CURVE ( 'NONE', #233, #194, #7, .T. ) ;
#230 = PLANE ( 'NONE',  #32 ) ;
#231 = VERTEX_POINT ( 'NONE', #259 ) ;
#232 = VERTEX_POINT ( 'NONE', #140 ) ;
#233 = VERTEX_POINT ( 'NONE', #96 ) ;
#234 = DIRECTION ( 'NONE',  ( -0.000000000000000000, -0.000000000000000000, -1.000000000000000000 ) ) ;
#235 = CC_DESIGN_PERSON_AND_ORGANIZATION_ASSIGNMENT ( #105, #21, ( #80 ) ) ;
#236 = APPROVAL_PERSON_ORGANIZATION ( #269, #92, #225 ) ;
#237 = CLOSED_SHELL ( 'NONE', ( #158, #28, #201, #248, #2, #258, #109 ) ) ;
#238 = DESIGN_CONTEXT ( 'detailed design', #24, 'design' ) ;
#239 = LINE ( 'NONE', #176, #77 ) ;
#240 = AXIS2_PLACEMENT_3D ( 'NONE', #10, #160, #11 ) ;
#241 = FACE_OUTER_BOUND ( 'NONE', #253, .T. ) ;
#242 = FACE_OUTER_BOUND ( 'NONE', #101, .T. ) ;
#243 = PLANE ( 'NONE',  #119 ) ;
#244 = PERSON_AND_ORGANIZATION_ROLE ( 'design_owner' ) ;
#245 = ORIENTED_EDGE ( 'NONE', *, *, #29, .T. ) ;
#246 = CARTESIAN_POINT ( 'NONE',  ( 0.000000000000000000, 0.000000000000000000, 10.00000000000000000 ) ) ;
#247 = CALENDAR_DATE ( 2024, 13, 5 ) ;
#248 = ADVANCED_FACE ( 'NONE', ( #262 ), #71, .F. ) ;
#249 = EDGE_LOOP ( 'NONE', ( #153, #226, #4, #39 ) ) ;
#250 = APPROVAL_ROLE ( '' ) ;
#251 = CARTESIAN_POINT ( 'NONE',  ( -25.36183155846595838, 5.000000000000000888, 10.00000000000000000 ) ) ;
#252 = ORIENTED_EDGE ( 'NONE', *, *, #131, .T. ) ;
#253 = EDGE_LOOP ( 'NONE', ( #44, #26, #129, #120 ) ) ;
#254 = VECTOR ( 'NONE', #188, 1000.000000000000000 ) ;
#255 = EDGE_CURVE ( 'NONE', #232, #228, #239, .T. ) ;
#256 = DIRECTION ( 'NONE',  ( 0.000000000000000000, -0.000000000000000000, -1.000000000000000000 ) ) ;
#257 = CC_DESIGN_APPROVAL ( #163, ( #114 ) ) ;
#258 = ADVANCED_FACE ( 'NONE', ( #242 ), #243, .T. ) ;
#259 = CARTESIAN_POINT ( 'NONE',  ( -23.36183155846596193, 5.000000000000000888, 10.00000000000000000 ) ) ;
#260 = PRODUCT_DEFINITION_SHAPE ( 'NONE', 'NONE',  #9 ) ;
#261 = PERSON ( 'Î´Ö¸¶¨', 'Î´Ö¸¶¨', 'Î´Ö¸¶¨', ('Î´Ö¸¶¨'), ('Î´Ö¸¶¨'), ('Î´Ö¸¶¨') ) ;
#262 = FACE_OUTER_BOUND ( 'NONE', #249, .T. ) ;
#263 = FACE_OUTER_BOUND ( 'NONE', #45, .T. ) ;
#264 = LINE ( 'NONE', #54, #112 ) ;
#265 = CIRCLE ( 'NONE', #13, 25.84999999999999787 ) ;
#266 = COORDINATED_UNIVERSAL_TIME_OFFSET ( 8, 0, .AHEAD. ) ;
#267 = LOCAL_TIME ( 10, 50, 40.00000000000000000, #266 ) ;
#268 = LINE ( 'NONE', #81, #66 ) ;
#269 = PERSON_AND_ORGANIZATION ( #261, #100 ) ;
#270 = LINE ( 'NONE', #128, #254 ) ;
#271 = CIRCLE ( 'NONE', #156, 25.84999999999999787 ) ;
#272 = VERTEX_POINT ( 'NONE', #137 ) ;
#273 = SHAPE_DEFINITION_REPRESENTATION ( #260, #190 ) ;
#274 = DIRECTION ( 'NONE',  ( -0.000000000000000000, -0.000000000000000000, -1.000000000000000000 ) ) ;
ENDSEC;
END-ISO-10303-21;
