ISO-10303-21;
HEADER;
FILE_DESCRIPTION (( 'STEP AP203' ),
    '1' );
FILE_NAME ('155521.STEP',
    '2024-05-13T02:58:40',
    ( '' ),
    ( '' ),
    'SwSTEP 2.0',
    'SolidWorks 2020',
    '' );
FILE_SCHEMA (( 'CONFIG_CONTROL_DESIGN' ));
ENDSEC;

DATA;
#1 = PRODUCT_DEFINITION ( 'Î´Öª', '', #173, #143 ) ;
#2 = APPROVAL_ROLE ( '' ) ;
#3 = ORIENTED_EDGE ( 'NONE', *, *, #220, .T. ) ;
#4 = APPROVAL_DATE_TIME ( #64, #270 ) ;
#5 = CALENDAR_DATE ( 2024, 13, 5 ) ;
#6 = CARTESIAN_POINT ( 'NONE',  ( -38.45631807648776856, 5.000000000000000888, 0.000000000000000000 ) ) ;
#7 = CARTESIAN_POINT ( 'NONE',  ( -36.45631807648776856, 5.000000000000000888, 0.000000000000000000 ) ) ;
#8 = AXIS2_PLACEMENT_3D ( 'NONE', #137, #95, #11 ) ;
#9 = PLANE ( 'NONE',  #63 ) ;
#10 = CARTESIAN_POINT ( 'NONE',  ( -38.78000000000000114, 0.000000000000000000, 10.00000000000000000 ) ) ;
#11 = DIRECTION ( 'NONE',  ( 0.000000000000000000, 0.000000000000000000, 1.000000000000000000 ) ) ;
#12 = CARTESIAN_POINT ( 'NONE',  ( -38.45631807648776856, 5.000000000000000888, 10.00000000000000000 ) ) ;
#13 = EDGE_CURVE ( 'NONE', #248, #223, #88, .T. ) ;
#14 = CARTESIAN_POINT ( 'NONE',  ( -38.45631807648776856, -5.000000000000000888, 0.000000000000000000 ) ) ;
#15 = ADVANCED_FACE ( 'NONE', ( #175 ), #9, .F. ) ;
#16 = AXIS2_PLACEMENT_3D ( 'NONE', #145, #54, #179 ) ;
#17 = ORIENTED_EDGE ( 'NONE', *, *, #111, .T. ) ;
#18 = CC_DESIGN_APPROVAL ( #67, ( #1 ) ) ;
#19 = VERTEX_POINT ( 'NONE', #26 ) ;
#20 = PERSON_AND_ORGANIZATION ( #43, #149 ) ;
#21 = ORIENTED_EDGE ( 'NONE', *, *, #103, .F. ) ;
#22 = APPROVAL_DATE_TIME ( #112, #67 ) ;
#23 = DIRECTION ( 'NONE',  ( 1.000000000000000000, 0.000000000000000000, -0.000000000000000000 ) ) ;
#24 = DIRECTION ( 'NONE',  ( 0.000000000000000000, -0.000000000000000000, -1.000000000000000000 ) ) ;
#25 = APPROVAL_STATUS ( 'not_yet_approved' ) ;
#26 = CARTESIAN_POINT ( 'NONE',  ( -38.45631807648776856, -5.000000000000000888, 10.00000000000000000 ) ) ;
#27 = AXIS2_PLACEMENT_3D ( 'NONE', #172, #114, #23 ) ;
#28 = CARTESIAN_POINT ( 'NONE',  ( -38.45631807648776856, 5.000000000000000888, 0.000000000000000000 ) ) ;
#29 = LOCAL_TIME ( 10, 58, 40.00000000000000000, #188 ) ;
#30 = ADVANCED_BREP_SHAPE_REPRESENTATION ( '155521', ( #165, #73 ), #96 ) ;
#31 = PLANE ( 'NONE',  #105 ) ;
#32 = CARTESIAN_POINT ( 'NONE',  ( -38.45631807648776856, 5.000000000000000888, 10.00000000000000000 ) ) ;
#33 = CC_DESIGN_DATE_AND_TIME_ASSIGNMENT ( #156, #233, ( #1 ) ) ;
#34 = CIRCLE ( 'NONE', #181, 38.78000000000000114 ) ;
#35 = DIRECTION ( 'NONE',  ( -0.000000000000000000, 1.000000000000000000, -0.000000000000000000 ) ) ;
#36 = CARTESIAN_POINT ( 'NONE',  ( -38.45631807648776856, 5.000000000000000888, 10.00000000000000000 ) ) ;
#37 = ADVANCED_FACE ( 'NONE', ( #194 ), #97, .F. ) ;
#38 = ORIENTED_EDGE ( 'NONE', *, *, #155, .T. ) ;
#39 = ORIENTED_EDGE ( 'NONE', *, *, #120, .F. ) ;
#40 = EDGE_LOOP ( 'NONE', ( #44, #90, #252, #254 ) ) ;
#41 = CLOSED_SHELL ( 'NONE', ( #193, #251, #15, #58, #94, #162, #37 ) ) ;
#42 = VERTEX_POINT ( 'NONE', #6 ) ;
#43 = PERSON ( 'Î´Ö¸¶¨', 'Î´Ö¸¶¨', 'Î´Ö¸¶¨', ('Î´Ö¸¶¨'), ('Î´Ö¸¶¨'), ('Î´Ö¸¶¨') ) ;
#44 = ORIENTED_EDGE ( 'NONE', *, *, #72, .F. ) ;
#45 = PLANE ( 'NONE',  #117 ) ;
#46 = CARTESIAN_POINT ( 'NONE',  ( -36.45631807648776856, 5.000000000000000888, 10.00000000000000000 ) ) ;
#47 = PERSON_AND_ORGANIZATION ( #43, #149 ) ;
#48 = DIRECTION ( 'NONE',  ( 0.000000000000000000, 0.000000000000000000, 1.000000000000000000 ) ) ;
#49 = DATE_TIME_ROLE ( 'classification_date' ) ;
#50 = APPROVAL ( #213, 'Î´Ö¸¶¨' ) ;
#51 = DIRECTION ( 'NONE',  ( 1.000000000000000000, 0.000000000000000000, 0.000000000000000000 ) ) ;
#52 = DIRECTION ( 'NONE',  ( -1.000000000000000000, -0.000000000000000000, -0.000000000000000000 ) ) ;
#53 = DIRECTION ( 'NONE',  ( 0.000000000000000000, 0.000000000000000000, 1.000000000000000000 ) ) ;
#54 = DIRECTION ( 'NONE',  ( -0.000000000000000000, -0.000000000000000000, -1.000000000000000000 ) ) ;
#55 = VECTOR ( 'NONE', #122, 1000.000000000000000 ) ;
#56 = CARTESIAN_POINT ( 'NONE',  ( -38.78000000000000114, 0.000000000000000000, 10.00000000000000000 ) ) ;
#57 = UNCERTAINTY_MEASURE_WITH_UNIT (LENGTH_MEASURE( 1.000000000000000082E-05 ), #264, 'distance_accuracy_value', 'NONE');
#58 = ADVANCED_FACE ( 'NONE', ( #76 ), #141, .F. ) ;
#59 = ORIENTED_EDGE ( 'NONE', *, *, #89, .T. ) ;
#60 = ORIENTED_EDGE ( 'NONE', *, *, #220, .F. ) ;
#61 = PRODUCT ( '155521', '155521', '', ( #240 ) ) ;
#62 = EDGE_LOOP ( 'NONE', ( #185, #167, #21, #274, #163 ) ) ;
#63 = AXIS2_PLACEMENT_3D ( 'NONE', #116, #115, #190 ) ;
#64 = DATE_AND_TIME ( #231, #241 ) ;
#65 = VERTEX_POINT ( 'NONE', #92 ) ;
#66 = PERSON_AND_ORGANIZATION ( #43, #149 ) ;
#67 = APPROVAL ( #174, 'Î´Ö¸¶¨' ) ;
#68 = DATE_AND_TIME ( #91, #131 ) ;
#69 = DIRECTION ( 'NONE',  ( 0.000000000000000000, 0.000000000000000000, 1.000000000000000000 ) ) ;
#70 = VECTOR ( 'NONE', #256, 1000.000000000000000 ) ;
#71 = DIRECTION ( 'NONE',  ( -0.000000000000000000, -0.000000000000000000, -1.000000000000000000 ) ) ;
#72 = EDGE_CURVE ( 'NONE', #223, #19, #226, .T. ) ;
#73 = AXIS2_PLACEMENT_3D ( 'NONE', #176, #53, #263 ) ;
#74 = CALENDAR_DATE ( 2024, 13, 5 ) ;
#75 = CARTESIAN_POINT ( 'NONE',  ( -38.45631807648776856, -5.000000000000000888, 10.00000000000000000 ) ) ;
#76 = FACE_OUTER_BOUND ( 'NONE', #110, .T. ) ;
#77 = CARTESIAN_POINT ( 'NONE',  ( 0.000000000000000000, 0.000000000000000000, 10.00000000000000000 ) ) ;
#78 = CC_DESIGN_PERSON_AND_ORGANIZATION_ASSIGNMENT ( #253, #134, ( #173 ) ) ;
#79 = APPLICATION_PROTOCOL_DEFINITION ( 'international standard', 'config_control_design', 1994, #230 ) ;
#80 = DIRECTION ( 'NONE',  ( -0.000000000000000000, -0.000000000000000000, -1.000000000000000000 ) ) ;
#81 = AXIS2_PLACEMENT_3D ( 'NONE', #157, #232, #51 ) ;
#82 = EDGE_CURVE ( 'NONE', #209, #65, #216, .T. ) ;
#83 = SECURITY_CLASSIFICATION ( '', '', #170 ) ;
#84 = ORIENTED_EDGE ( 'NONE', *, *, #100, .F. ) ;
#85 = ORIENTED_EDGE ( 'NONE', *, *, #120, .T. ) ;
#86 = ORIENTED_EDGE ( 'NONE', *, *, #261, .F. ) ;
#87 = APPROVAL_ROLE ( '' ) ;
#88 = CIRCLE ( 'NONE', #244, 38.78000000000000114 ) ;
#89 = EDGE_CURVE ( 'NONE', #203, #106, #192, .T. ) ;
#90 = ORIENTED_EDGE ( 'NONE', *, *, #164, .T. ) ;
#91 = CALENDAR_DATE ( 2024, 13, 5 ) ;
#92 = CARTESIAN_POINT ( 'NONE',  ( -36.45631807648776856, 5.000000000000000888, 0.000000000000000000 ) ) ;
#93 = PERSON_AND_ORGANIZATION_ROLE ( 'creator' ) ;
#94 = ADVANCED_FACE ( 'NONE', ( #262 ), #45, .F. ) ;
#95 = DIRECTION ( 'NONE',  ( -1.000000000000000000, 0.000000000000000000, 0.000000000000000000 ) ) ;
#96 =( GEOMETRIC_REPRESENTATION_CONTEXT ( 3 ) GLOBAL_UNCERTAINTY_ASSIGNED_CONTEXT ( ( #57 ) ) GLOBAL_UNIT_ASSIGNED_CONTEXT ( ( #264, #101, #201 ) ) REPRESENTATION_CONTEXT ( 'NONE', 'WORKASPACE' ) );
#97 = PLANE ( 'NONE',  #27 ) ;
#98 = DIRECTION ( 'NONE',  ( -0.000000000000000000, -0.000000000000000000, -1.000000000000000000 ) ) ;
#99 = DIRECTION ( 'NONE',  ( 1.000000000000000000, 0.000000000000000000, 0.000000000000000000 ) ) ;
#100 = EDGE_CURVE ( 'NONE', #19, #133, #171, .T. ) ;
#101 =( NAMED_UNIT ( * ) PLANE_ANGLE_UNIT ( ) SI_UNIT ( $, .RADIAN. ) );
#102 = DIRECTION ( 'NONE',  ( 0.000000000000000000, 0.000000000000000000, 1.000000000000000000 ) ) ;
#103 = EDGE_CURVE ( 'NONE', #106, #65, #159, .T. ) ;
#104 = AXIS2_PLACEMENT_3D ( 'NONE', #234, #218, #118 ) ;
#105 = AXIS2_PLACEMENT_3D ( 'NONE', #197, #48, #211 ) ;
#106 = VERTEX_POINT ( 'NONE', #152 ) ;
#107 = LOCAL_TIME ( 10, 58, 40.00000000000000000, #136 ) ;
#108 = EDGE_LOOP ( 'NONE', ( #187, #132, #249, #229, #183 ) ) ;
#109 = CALENDAR_DATE ( 2024, 13, 5 ) ;
#110 = EDGE_LOOP ( 'NONE', ( #271, #147, #113, #85 ) ) ;
#111 = EDGE_CURVE ( 'NONE', #19, #203, #236, .T. ) ;
#112 = DATE_AND_TIME ( #5, #107 ) ;
#113 = ORIENTED_EDGE ( 'NONE', *, *, #180, .F. ) ;
#114 = DIRECTION ( 'NONE',  ( 0.000000000000000000, 0.000000000000000000, 1.000000000000000000 ) ) ;
#115 = DIRECTION ( 'NONE',  ( 0.000000000000000000, 1.000000000000000000, 0.000000000000000000 ) ) ;
#116 = CARTESIAN_POINT ( 'NONE',  ( -38.45631807648776856, -5.000000000000000888, 10.00000000000000000 ) ) ;
#117 = AXIS2_PLACEMENT_3D ( 'NONE', #169, #259, #24 ) ;
#118 = DIRECTION ( 'NONE',  ( 1.000000000000000000, 0.000000000000000000, 0.000000000000000000 ) ) ;
#119 = LINE ( 'NONE', #177, #272 ) ;
#120 = EDGE_CURVE ( 'NONE', #133, #106, #158, .T. ) ;
#121 = APPLICATION_PROTOCOL_DEFINITION ( 'international standard', 'config_control_design', 1994, #212 ) ;
#122 = DIRECTION ( 'NONE',  ( -0.000000000000000000, -0.000000000000000000, -1.000000000000000000 ) ) ;
#123 = EDGE_CURVE ( 'NONE', #206, #203, #196, .T. ) ;
#124 = CARTESIAN_POINT ( 'NONE',  ( 0.000000000000000000, 0.000000000000000000, 0.000000000000000000 ) ) ;
#125 = EDGE_LOOP ( 'NONE', ( #38, #60, #86, #273 ) ) ;
#126 = CC_DESIGN_PERSON_AND_ORGANIZATION_ASSIGNMENT ( #20, #93, ( #1 ) ) ;
#127 = CC_DESIGN_SECURITY_CLASSIFICATION ( #83, ( #173 ) ) ;
#128 = EDGE_LOOP ( 'NONE', ( #59, #39, #84, #17 ) ) ;
#129 = VECTOR ( 'NONE', #199, 1000.000000000000000 ) ;
#130 = VECTOR ( 'NONE', #267, 1000.000000000000000 ) ;
#131 = LOCAL_TIME ( 10, 58, 40.00000000000000000, #258 ) ;
#132 = ORIENTED_EDGE ( 'NONE', *, *, #72, .T. ) ;
#133 = VERTEX_POINT ( 'NONE', #238 ) ;
#134 = PERSON_AND_ORGANIZATION_ROLE ( 'creator' ) ;
#135 = DIRECTION ( 'NONE',  ( 1.000000000000000000, 0.000000000000000000, 0.000000000000000000 ) ) ;
#136 = COORDINATED_UNIVERSAL_TIME_OFFSET ( 8, 0, .AHEAD. ) ;
#137 = CARTESIAN_POINT ( 'NONE',  ( -36.45631807648776856, 5.000000000000000888, 10.00000000000000000 ) ) ;
#138 = PERSON_AND_ORGANIZATION ( #43, #149 ) ;
#139 = LINE ( 'NONE', #10, #245 ) ;
#140 = PERSON_AND_ORGANIZATION ( #43, #149 ) ;
#141 = PLANE ( 'NONE',  #8 ) ;
#142 = FACE_OUTER_BOUND ( 'NONE', #108, .T. ) ;
#143 = DESIGN_CONTEXT ( 'detailed design', #230, 'design' ) ;
#144 = PERSON_AND_ORGANIZATION_ROLE ( 'design_owner' ) ;
#145 = CARTESIAN_POINT ( 'NONE',  ( 0.000000000000000000, 0.000000000000000000, 10.00000000000000000 ) ) ;
#146 = DIRECTION ( 'NONE',  ( -1.000000000000000000, 0.000000000000000000, 0.000000000000000000 ) ) ;
#147 = ORIENTED_EDGE ( 'NONE', *, *, #82, .F. ) ;
#148 = CC_DESIGN_PERSON_AND_ORGANIZATION_ASSIGNMENT ( #186, #151, ( #83 ) ) ;
#149 = ORGANIZATION ( 'Î´Ö¸¶¨', 'Î´Ö¸¶¨', '' ) ;
#150 = ORIENTED_EDGE ( 'NONE', *, *, #246, .T. ) ;
#151 = PERSON_AND_ORGANIZATION_ROLE ( 'classification_officer' ) ;
#152 = CARTESIAN_POINT ( 'NONE',  ( -36.45631807648776856, -5.000000000000000888, 0.000000000000000000 ) ) ;
#153 = LINE ( 'NONE', #28, #205 ) ;
#154 = AXIS2_PLACEMENT_3D ( 'NONE', #77, #80, #146 ) ;
#155 = EDGE_CURVE ( 'NONE', #65, #42, #153, .T. ) ;
#156 = DATE_AND_TIME ( #109, #29 ) ;
#157 = CARTESIAN_POINT ( 'NONE',  ( 0.000000000000000000, 0.000000000000000000, 0.000000000000000000 ) ) ;
#158 = LINE ( 'NONE', #237, #221 ) ;
#159 = LINE ( 'NONE', #7, #70 ) ;
#160 = CYLINDRICAL_SURFACE ( 'NONE', #16, 38.78000000000000114 ) ;
#161 = FACE_OUTER_BOUND ( 'NONE', #40, .T. ) ;
#162 = ADVANCED_FACE ( 'NONE', ( #142 ), #31, .T. ) ;
#163 = ORIENTED_EDGE ( 'NONE', *, *, #123, .F. ) ;
#164 = EDGE_CURVE ( 'NONE', #223, #206, #139, .T. ) ;
#165 = MANIFOLD_SOLID_BREP ( 'Í¹Ì¨-À­Éì1', #41 ) ;
#166 = ORIENTED_EDGE ( 'NONE', *, *, #13, .F. ) ;
#167 = ORIENTED_EDGE ( 'NONE', *, *, #155, .F. ) ;
#168 = SHAPE_DEFINITION_REPRESENTATION ( #207, #30 ) ;
#169 = CARTESIAN_POINT ( 'NONE',  ( -38.45631807648776856, 5.000000000000000888, 10.00000000000000000 ) ) ;
#170 = SECURITY_CLASSIFICATION_LEVEL ( 'unclassified' ) ;
#171 = LINE ( 'NONE', #75, #268 ) ;
#172 = CARTESIAN_POINT ( 'NONE',  ( 0.000000000000000000, 0.000000000000000000, 0.000000000000000000 ) ) ;
#173 = PRODUCT_DEFINITION_FORMATION_WITH_SPECIFIED_SOURCE ( 'ÈÎºÎ', '', #61, .NOT_KNOWN. ) ;
#174 = APPROVAL_STATUS ( 'not_yet_approved' ) ;
#175 = FACE_OUTER_BOUND ( 'NONE', #128, .T. ) ;
#176 = CARTESIAN_POINT ( 'NONE',  ( 0.000000000000000000, 0.000000000000000000, 0.000000000000000000 ) ) ;
#177 = CARTESIAN_POINT ( 'NONE',  ( -36.45631807648776856, 5.000000000000000888, 10.00000000000000000 ) ) ;
#178 = FACE_OUTER_BOUND ( 'NONE', #224, .T. ) ;
#179 = DIRECTION ( 'NONE',  ( -1.000000000000000000, 0.000000000000000000, 0.000000000000000000 ) ) ;
#180 = EDGE_CURVE ( 'NONE', #133, #209, #119, .T. ) ;
#181 = AXIS2_PLACEMENT_3D ( 'NONE', #124, #102, #200 ) ;
#182 = PRODUCT_RELATED_PRODUCT_CATEGORY ( 'detail', '', ( #61 ) ) ;
#183 = ORIENTED_EDGE ( 'NONE', *, *, #261, .T. ) ;
#184 = APPROVAL_DATE_TIME ( #191, #50 ) ;
#185 = ORIENTED_EDGE ( 'NONE', *, *, #246, .F. ) ;
#186 = PERSON_AND_ORGANIZATION ( #43, #149 ) ;
#187 = ORIENTED_EDGE ( 'NONE', *, *, #13, .T. ) ;
#188 = COORDINATED_UNIVERSAL_TIME_OFFSET ( 8, 0, .AHEAD. ) ;
#189 = CC_DESIGN_PERSON_AND_ORGANIZATION_ASSIGNMENT ( #138, #215, ( #173 ) ) ;
#190 = DIRECTION ( 'NONE',  ( 0.000000000000000000, -0.000000000000000000, 1.000000000000000000 ) ) ;
#191 = DATE_AND_TIME ( #74, #247 ) ;
#192 = LINE ( 'NONE', #214, #195 ) ;
#193 = ADVANCED_FACE ( 'NONE', ( #161 ), #239, .T. ) ;
#194 = FACE_OUTER_BOUND ( 'NONE', #62, .T. ) ;
#195 = VECTOR ( 'NONE', #260, 1000.000000000000000 ) ;
#196 = CIRCLE ( 'NONE', #81, 38.78000000000000114 ) ;
#197 = CARTESIAN_POINT ( 'NONE',  ( 0.000000000000000000, 0.000000000000000000, 10.00000000000000000 ) ) ;
#198 = APPROVAL_PERSON_ORGANIZATION ( #140, #67, #228 ) ;
#199 = DIRECTION ( 'NONE',  ( -0.000000000000000000, -0.000000000000000000, -1.000000000000000000 ) ) ;
#200 = DIRECTION ( 'NONE',  ( 1.000000000000000000, 0.000000000000000000, 0.000000000000000000 ) ) ;
#201 =( NAMED_UNIT ( * ) SI_UNIT ( $, .STERADIAN. ) SOLID_ANGLE_UNIT ( ) );
#202 = CC_DESIGN_DATE_AND_TIME_ASSIGNMENT ( #68, #49, ( #83 ) ) ;
#203 = VERTEX_POINT ( 'NONE', #14 ) ;
#204 = CARTESIAN_POINT ( 'NONE',  ( 0.000000000000000000, 0.000000000000000000, 10.00000000000000000 ) ) ;
#205 = VECTOR ( 'NONE', #52, 1000.000000000000000 ) ;
#206 = VERTEX_POINT ( 'NONE', #222 ) ;
#207 = PRODUCT_DEFINITION_SHAPE ( 'NONE', 'NONE',  #1 ) ;
#208 = APPROVAL_PERSON_ORGANIZATION ( #47, #50, #87 ) ;
#209 = VERTEX_POINT ( 'NONE', #243 ) ;
#210 = CC_DESIGN_PERSON_AND_ORGANIZATION_ASSIGNMENT ( #265, #144, ( #61 ) ) ;
#211 = DIRECTION ( 'NONE',  ( 1.000000000000000000, 0.000000000000000000, -0.000000000000000000 ) ) ;
#212 = APPLICATION_CONTEXT ( 'configuration controlled 3d designs of mechanical parts and assemblies' ) ;
#213 = APPROVAL_STATUS ( 'not_yet_approved' ) ;
#214 = CARTESIAN_POINT ( 'NONE',  ( -38.45631807648776856, -5.000000000000000888, 0.000000000000000000 ) ) ;
#215 = PERSON_AND_ORGANIZATION_ROLE ( 'design_supplier' ) ;
#216 = LINE ( 'NONE', #46, #129 ) ;
#217 = DIRECTION ( 'NONE',  ( -0.000000000000000000, -0.000000000000000000, -1.000000000000000000 ) ) ;
#218 = DIRECTION ( 'NONE',  ( 0.000000000000000000, 0.000000000000000000, 1.000000000000000000 ) ) ;
#219 = LINE ( 'NONE', #32, #130 ) ;
#220 = EDGE_CURVE ( 'NONE', #248, #42, #242, .T. ) ;
#221 = VECTOR ( 'NONE', #217, 1000.000000000000000 ) ;
#222 = CARTESIAN_POINT ( 'NONE',  ( -38.78000000000000114, 0.000000000000000000, 0.000000000000000000 ) ) ;
#223 = VERTEX_POINT ( 'NONE', #56 ) ;
#224 = EDGE_LOOP ( 'NONE', ( #250, #166, #3, #150 ) ) ;
#225 = APPROVAL_PERSON_ORGANIZATION ( #66, #270, #2 ) ;
#226 = CIRCLE ( 'NONE', #104, 38.78000000000000114 ) ;
#227 = VECTOR ( 'NONE', #71, 1000.000000000000000 ) ;
#228 = APPROVAL_ROLE ( '' ) ;
#229 = ORIENTED_EDGE ( 'NONE', *, *, #180, .T. ) ;
#230 = APPLICATION_CONTEXT ( 'configuration controlled 3d designs of mechanical parts and assemblies' ) ;
#231 = CALENDAR_DATE ( 2024, 13, 5 ) ;
#232 = DIRECTION ( 'NONE',  ( 0.000000000000000000, 0.000000000000000000, 1.000000000000000000 ) ) ;
#233 = DATE_TIME_ROLE ( 'creation_date' ) ;
#234 = CARTESIAN_POINT ( 'NONE',  ( 0.000000000000000000, 0.000000000000000000, 10.00000000000000000 ) ) ;
#235 = COORDINATED_UNIVERSAL_TIME_OFFSET ( 8, 0, .AHEAD. ) ;
#236 = LINE ( 'NONE', #257, #227 ) ;
#237 = CARTESIAN_POINT ( 'NONE',  ( -36.45631807648776856, -5.000000000000000888, 10.00000000000000000 ) ) ;
#238 = CARTESIAN_POINT ( 'NONE',  ( -36.45631807648776856, -5.000000000000000888, 10.00000000000000000 ) ) ;
#239 = CYLINDRICAL_SURFACE ( 'NONE', #154, 38.78000000000000114 ) ;
#240 = MECHANICAL_CONTEXT ( 'NONE', #212, 'mechanical' ) ;
#241 = LOCAL_TIME ( 10, 58, 40.00000000000000000, #255 ) ;
#242 = LINE ( 'NONE', #36, #55 ) ;
#243 = CARTESIAN_POINT ( 'NONE',  ( -36.45631807648776856, 5.000000000000000888, 10.00000000000000000 ) ) ;
#244 = AXIS2_PLACEMENT_3D ( 'NONE', #204, #69, #135 ) ;
#245 = VECTOR ( 'NONE', #98, 1000.000000000000000 ) ;
#246 = EDGE_CURVE ( 'NONE', #42, #206, #34, .T. ) ;
#247 = LOCAL_TIME ( 10, 58, 40.00000000000000000, #235 ) ;
#248 = VERTEX_POINT ( 'NONE', #12 ) ;
#249 = ORIENTED_EDGE ( 'NONE', *, *, #100, .T. ) ;
#250 = ORIENTED_EDGE ( 'NONE', *, *, #164, .F. ) ;
#251 = ADVANCED_FACE ( 'NONE', ( #178 ), #160, .T. ) ;
#252 = ORIENTED_EDGE ( 'NONE', *, *, #123, .T. ) ;
#253 = PERSON_AND_ORGANIZATION ( #43, #149 ) ;
#254 = ORIENTED_EDGE ( 'NONE', *, *, #111, .F. ) ;
#255 = COORDINATED_UNIVERSAL_TIME_OFFSET ( 8, 0, .AHEAD. ) ;
#256 = DIRECTION ( 'NONE',  ( -0.000000000000000000, 1.000000000000000000, -0.000000000000000000 ) ) ;
#257 = CARTESIAN_POINT ( 'NONE',  ( -38.45631807648776856, -5.000000000000000888, 10.00000000000000000 ) ) ;
#258 = COORDINATED_UNIVERSAL_TIME_OFFSET ( 8, 0, .AHEAD. ) ;
#259 = DIRECTION ( 'NONE',  ( 0.000000000000000000, -1.000000000000000000, 0.000000000000000000 ) ) ;
#260 = DIRECTION ( 'NONE',  ( 1.000000000000000000, 0.000000000000000000, 0.000000000000000000 ) ) ;
#261 = EDGE_CURVE ( 'NONE', #209, #248, #219, .T. ) ;
#262 = FACE_OUTER_BOUND ( 'NONE', #125, .T. ) ;
#263 = DIRECTION ( 'NONE',  ( 1.000000000000000000, 0.000000000000000000, 0.000000000000000000 ) ) ;
#264 =( LENGTH_UNIT ( ) NAMED_UNIT ( * ) SI_UNIT ( .MILLI., .METRE. ) );
#265 = PERSON_AND_ORGANIZATION ( #43, #149 ) ;
#266 = CC_DESIGN_APPROVAL ( #270, ( #83 ) ) ;
#267 = DIRECTION ( 'NONE',  ( -1.000000000000000000, -0.000000000000000000, -0.000000000000000000 ) ) ;
#268 = VECTOR ( 'NONE', #99, 1000.000000000000000 ) ;
#269 = CC_DESIGN_APPROVAL ( #50, ( #173 ) ) ;
#270 = APPROVAL ( #25, 'Î´Ö¸¶¨' ) ;
#271 = ORIENTED_EDGE ( 'NONE', *, *, #103, .T. ) ;
#272 = VECTOR ( 'NONE', #35, 1000.000000000000000 ) ;
#273 = ORIENTED_EDGE ( 'NONE', *, *, #82, .T. ) ;
#274 = ORIENTED_EDGE ( 'NONE', *, *, #89, .F. ) ;
ENDSEC;
END-ISO-10303-21;
