ISO-10303-21;
HEADER;
FILE_DESCRIPTION (( 'STEP AP203' ),
    '1' );
FILE_NAME ('155519.STEP',
    '2024-05-13T02:42:33',
    ( '' ),
    ( '' ),
    'SwSTEP 2.0',
    'SolidWorks 2020',
    '' );
FILE_SCHEMA (( 'CONFIG_CONTROL_DESIGN' ));
ENDSEC;

DATA;
#1 = DATE_TIME_ROLE ( 'classification_date' ) ;
#2 = ORIENTED_EDGE ( 'NONE', *, *, #147, .T. ) ;
#3 = EDGE_CURVE ( 'NONE', #205, #232, #38, .T. ) ;
#4 = CARTESIAN_POINT ( 'NONE',  ( -20.06644961122918858, 5.000000000000000000, 10.00000000000000000 ) ) ;
#5 = CARTESIAN_POINT ( 'NONE',  ( -20.67999999999999972, 0.000000000000000000, 10.00000000000000000 ) ) ;
#6 = CARTESIAN_POINT ( 'NONE',  ( -20.06644961122918858, -5.000000000000000000, 10.00000000000000000 ) ) ;
#7 = LINE ( 'NONE', #46, #39 ) ;
#8 = DIRECTION ( 'NONE',  ( 1.000000000000000000, 0.000000000000000000, 0.000000000000000000 ) ) ;
#9 = APPROVAL ( #17, 'Î´Ö¸¶¨' ) ;
#10 = CARTESIAN_POINT ( 'NONE',  ( 0.000000000000000000, 0.000000000000000000, 10.00000000000000000 ) ) ;
#11 = APPROVAL_PERSON_ORGANIZATION ( #137, #9, #85 ) ;
#12 = VECTOR ( 'NONE', #88, 1000.000000000000000 ) ;
#13 = VERTEX_POINT ( 'NONE', #23 ) ;
#14 = DIRECTION ( 'NONE',  ( 0.000000000000000000, -0.000000000000000000, -1.000000000000000000 ) ) ;
#15 = PLANE ( 'NONE',  #199 ) ;
#16 = CIRCLE ( 'NONE', #209, 20.67999999999999972 ) ;
#17 = APPROVAL_STATUS ( 'not_yet_approved' ) ;
#18 = DIRECTION ( 'NONE',  ( -1.000000000000000000, 0.000000000000000000, 0.000000000000000000 ) ) ;
#19 = VECTOR ( 'NONE', #174, 1000.000000000000000 ) ;
#20 = FACE_OUTER_BOUND ( 'NONE', #35, .T. ) ;
#21 = ORIENTED_EDGE ( 'NONE', *, *, #57, .T. ) ;
#22 = DIRECTION ( 'NONE',  ( -0.000000000000000000, -0.000000000000000000, -1.000000000000000000 ) ) ;
#23 = CARTESIAN_POINT ( 'NONE',  ( -18.06644961122919213, 5.000000000000000000, 0.000000000000000000 ) ) ;
#24 = DIRECTION ( 'NONE',  ( 1.000000000000000000, 0.000000000000000000, 0.000000000000000000 ) ) ;
#25 = APPROVAL_ROLE ( '' ) ;
#26 = LINE ( 'NONE', #63, #67 ) ;
#27 = ADVANCED_FACE ( 'NONE', ( #183 ), #15, .T. ) ;
#28 = PRODUCT_RELATED_PRODUCT_CATEGORY ( 'detail', '', ( #87 ) ) ;
#29 = PERSON_AND_ORGANIZATION ( #265, #181 ) ;
#30 = CYLINDRICAL_SURFACE ( 'NONE', #243, 20.67999999999999972 ) ;
#31 = LOCAL_TIME ( 10, 42, 33.00000000000000000, #44 ) ;
#32 = EDGE_LOOP ( 'NONE', ( #172, #215, #180, #81 ) ) ;
#33 = ORIENTED_EDGE ( 'NONE', *, *, #133, .F. ) ;
#34 = PERSON_AND_ORGANIZATION ( #265, #181 ) ;
#35 = EDGE_LOOP ( 'NONE', ( #61, #146, #230, #76 ) ) ;
#36 = CC_DESIGN_SECURITY_CLASSIFICATION ( #239, ( #271 ) ) ;
#37 = PERSON_AND_ORGANIZATION_ROLE ( 'classification_officer' ) ;
#38 = LINE ( 'NONE', #79, #51 ) ;
#39 = VECTOR ( 'NONE', #173, 1000.000000000000000 ) ;
#40 = CARTESIAN_POINT ( 'NONE',  ( -18.06644961122919213, 5.000000000000000000, 10.00000000000000000 ) ) ;
#41 = CARTESIAN_POINT ( 'NONE',  ( 0.000000000000000000, 0.000000000000000000, 10.00000000000000000 ) ) ;
#42 = PERSON_AND_ORGANIZATION ( #265, #181 ) ;
#43 = DIRECTION ( 'NONE',  ( 1.000000000000000000, 0.000000000000000000, 0.000000000000000000 ) ) ;
#44 = COORDINATED_UNIVERSAL_TIME_OFFSET ( 8, 0, .AHEAD. ) ;
#45 = SECURITY_CLASSIFICATION_LEVEL ( 'unclassified' ) ;
#46 = CARTESIAN_POINT ( 'NONE',  ( -18.06644961122919213, 5.000000000000000000, 0.000000000000000000 ) ) ;
#47 = ADVANCED_FACE ( 'NONE', ( #169 ), #145, .F. ) ;
#48 = DATE_TIME_ROLE ( 'creation_date' ) ;
#49 = COORDINATED_UNIVERSAL_TIME_OFFSET ( 8, 0, .AHEAD. ) ;
#50 = AXIS2_PLACEMENT_3D ( 'NONE', #10, #160, #110 ) ;
#51 = VECTOR ( 'NONE', #123, 1000.000000000000000 ) ;
#52 = ORIENTED_EDGE ( 'NONE', *, *, #3, .T. ) ;
#53 = ORIENTED_EDGE ( 'NONE', *, *, #249, .T. ) ;
#54 = COORDINATED_UNIVERSAL_TIME_OFFSET ( 8, 0, .AHEAD. ) ;
#55 =( GEOMETRIC_REPRESENTATION_CONTEXT ( 3 ) GLOBAL_UNCERTAINTY_ASSIGNED_CONTEXT ( ( #122 ) ) GLOBAL_UNIT_ASSIGNED_CONTEXT ( ( #241, #255, #60 ) ) REPRESENTATION_CONTEXT ( 'NONE', 'WORKASPACE' ) );
#56 = PLANE ( 'NONE',  #74 ) ;
#57 = EDGE_CURVE ( 'NONE', #98, #205, #102, .T. ) ;
#58 = APPLICATION_PROTOCOL_DEFINITION ( 'international standard', 'config_control_design', 1994, #187 ) ;
#59 = CARTESIAN_POINT ( 'NONE',  ( -20.06644961122918858, 5.000000000000000000, 0.000000000000000000 ) ) ;
#60 =( NAMED_UNIT ( * ) SI_UNIT ( $, .STERADIAN. ) SOLID_ANGLE_UNIT ( ) );
#61 = ORIENTED_EDGE ( 'NONE', *, *, #111, .T. ) ;
#62 = PRODUCT_DEFINITION_SHAPE ( 'NONE', 'NONE',  #204 ) ;
#63 = CARTESIAN_POINT ( 'NONE',  ( -20.06644961122918858, 5.000000000000000000, 10.00000000000000000 ) ) ;
#64 = LINE ( 'NONE', #159, #228 ) ;
#65 = CYLINDRICAL_SURFACE ( 'NONE', #129, 20.67999999999999972 ) ;
#66 = CARTESIAN_POINT ( 'NONE',  ( 0.000000000000000000, 0.000000000000000000, 0.000000000000000000 ) ) ;
#67 = VECTOR ( 'NONE', #262, 1000.000000000000000 ) ;
#68 = CARTESIAN_POINT ( 'NONE',  ( -20.06644961122918858, -5.000000000000000000, 0.000000000000000000 ) ) ;
#69 = CC_DESIGN_PERSON_AND_ORGANIZATION_ASSIGNMENT ( #42, #212, ( #271 ) ) ;
#70 = PERSON_AND_ORGANIZATION_ROLE ( 'creator' ) ;
#71 = ADVANCED_FACE ( 'NONE', ( #168 ), #56, .F. ) ;
#72 = APPROVAL_STATUS ( 'not_yet_approved' ) ;
#73 = VERTEX_POINT ( 'NONE', #190 ) ;
#74 = AXIS2_PLACEMENT_3D ( 'NONE', #149, #18, #106 ) ;
#75 = APPROVAL ( #72, 'Î´Ö¸¶¨' ) ;
#76 = ORIENTED_EDGE ( 'NONE', *, *, #256, .T. ) ;
#77 = APPLICATION_CONTEXT ( 'configuration controlled 3d designs of mechanical parts and assemblies' ) ;
#78 = APPROVAL_PERSON_ORGANIZATION ( #258, #264, #25 ) ;
#79 = CARTESIAN_POINT ( 'NONE',  ( -20.06644961122918858, 5.000000000000000000, 10.00000000000000000 ) ) ;
#80 = PERSON_AND_ORGANIZATION ( #265, #181 ) ;
#81 = ORIENTED_EDGE ( 'NONE', *, *, #219, .T. ) ;
#82 = APPROVAL_DATE_TIME ( #189, #9 ) ;
#83 = CARTESIAN_POINT ( 'NONE',  ( -20.06644961122918858, -5.000000000000000000, 10.00000000000000000 ) ) ;
#84 = APPROVAL_DATE_TIME ( #128, #264 ) ;
#85 = APPROVAL_ROLE ( '' ) ;
#86 = VERTEX_POINT ( 'NONE', #83 ) ;
#87 = PRODUCT ( '155519', '155519', '', ( #96 ) ) ;
#88 = DIRECTION ( 'NONE',  ( -0.000000000000000000, -0.000000000000000000, -1.000000000000000000 ) ) ;
#89 = CARTESIAN_POINT ( 'NONE',  ( -18.06644961122919213, -5.000000000000000000, 0.000000000000000000 ) ) ;
#90 = PERSON_AND_ORGANIZATION_ROLE ( 'design_owner' ) ;
#91 = CARTESIAN_POINT ( 'NONE',  ( -20.67999999999999972, 0.000000000000000000, 10.00000000000000000 ) ) ;
#92 = CARTESIAN_POINT ( 'NONE',  ( -20.06644961122918858, -5.000000000000000000, 10.00000000000000000 ) ) ;
#93 = CC_DESIGN_APPROVAL ( #264, ( #204 ) ) ;
#94 = CIRCLE ( 'NONE', #116, 20.67999999999999972 ) ;
#95 = VECTOR ( 'NONE', #193, 1000.000000000000000 ) ;
#96 = MECHANICAL_CONTEXT ( 'NONE', #77, 'mechanical' ) ;
#97 = CC_DESIGN_PERSON_AND_ORGANIZATION_ASSIGNMENT ( #238, #90, ( #87 ) ) ;
#98 = VERTEX_POINT ( 'NONE', #170 ) ;
#99 = AXIS2_PLACEMENT_3D ( 'NONE', #171, #156, #274 ) ;
#100 = ORIENTED_EDGE ( 'NONE', *, *, #147, .F. ) ;
#101 = CC_DESIGN_DATE_AND_TIME_ASSIGNMENT ( #141, #48, ( #204 ) ) ;
#102 = LINE ( 'NONE', #248, #211 ) ;
#103 = VERTEX_POINT ( 'NONE', #59 ) ;
#104 = AXIS2_PLACEMENT_3D ( 'NONE', #214, #192, #200 ) ;
#105 = APPROVAL_ROLE ( '' ) ;
#106 = DIRECTION ( 'NONE',  ( 0.000000000000000000, 0.000000000000000000, 1.000000000000000000 ) ) ;
#107 = DIRECTION ( 'NONE',  ( -0.000000000000000000, -0.000000000000000000, -1.000000000000000000 ) ) ;
#108 = ORIENTED_EDGE ( 'NONE', *, *, #268, .T. ) ;
#109 = DIRECTION ( 'NONE',  ( 0.000000000000000000, 1.000000000000000000, 0.000000000000000000 ) ) ;
#110 = DIRECTION ( 'NONE',  ( 1.000000000000000000, 0.000000000000000000, 0.000000000000000000 ) ) ;
#111 = EDGE_CURVE ( 'NONE', #73, #191, #213, .T. ) ;
#112 = APPLICATION_PROTOCOL_DEFINITION ( 'international standard', 'config_control_design', 1994, #77 ) ;
#113 = CARTESIAN_POINT ( 'NONE',  ( 0.000000000000000000, 0.000000000000000000, 10.00000000000000000 ) ) ;
#114 = CARTESIAN_POINT ( 'NONE',  ( -20.67999999999999972, 0.000000000000000000, 0.000000000000000000 ) ) ;
#115 = FACE_OUTER_BOUND ( 'NONE', #150, .T. ) ;
#116 = AXIS2_PLACEMENT_3D ( 'NONE', #66, #216, #8 ) ;
#117 = EDGE_CURVE ( 'NONE', #191, #13, #7, .T. ) ;
#118 = LINE ( 'NONE', #195, #12 ) ;
#119 = EDGE_CURVE ( 'NONE', #86, #98, #260, .T. ) ;
#120 = ADVANCED_FACE ( 'NONE', ( #115 ), #65, .T. ) ;
#121 = CARTESIAN_POINT ( 'NONE',  ( -20.06644961122918858, 5.000000000000000000, 10.00000000000000000 ) ) ;
#122 = UNCERTAINTY_MEASURE_WITH_UNIT (LENGTH_MEASURE( 1.000000000000000082E-05 ), #241, 'distance_accuracy_value', 'NONE');
#123 = DIRECTION ( 'NONE',  ( -1.000000000000000000, -0.000000000000000000, -0.000000000000000000 ) ) ;
#124 = APPROVAL_PERSON_ORGANIZATION ( #29, #75, #105 ) ;
#125 = COORDINATED_UNIVERSAL_TIME_OFFSET ( 8, 0, .AHEAD. ) ;
#126 = ORIENTED_EDGE ( 'NONE', *, *, #117, .F. ) ;
#127 = CIRCLE ( 'NONE', #50, 20.67999999999999972 ) ;
#128 = DATE_AND_TIME ( #220, #31 ) ;
#129 = AXIS2_PLACEMENT_3D ( 'NONE', #113, #138, #221 ) ;
#130 = DATE_AND_TIME ( #135, #158 ) ;
#131 = ORIENTED_EDGE ( 'NONE', *, *, #57, .F. ) ;
#132 = LINE ( 'NONE', #151, #140 ) ;
#133 = EDGE_CURVE ( 'NONE', #13, #103, #176, .T. ) ;
#134 = ORIENTED_EDGE ( 'NONE', *, *, #175, .F. ) ;
#135 = CALENDAR_DATE ( 2024, 13, 5 ) ;
#136 = CARTESIAN_POINT ( 'NONE',  ( 0.000000000000000000, 0.000000000000000000, 10.00000000000000000 ) ) ;
#137 = PERSON_AND_ORGANIZATION ( #265, #181 ) ;
#138 = DIRECTION ( 'NONE',  ( -0.000000000000000000, -0.000000000000000000, -1.000000000000000000 ) ) ;
#139 = EDGE_CURVE ( 'NONE', #232, #103, #26, .T. ) ;
#140 = VECTOR ( 'NONE', #22, 1000.000000000000000 ) ;
#141 = DATE_AND_TIME ( #161, #242 ) ;
#142 = CC_DESIGN_APPROVAL ( #75, ( #271 ) ) ;
#143 = VECTOR ( 'NONE', #155, 1000.000000000000000 ) ;
#144 = DESIGN_CONTEXT ( 'detailed design', #187, 'design' ) ;
#145 = PLANE ( 'NONE',  #164 ) ;
#146 = ORIENTED_EDGE ( 'NONE', *, *, #249, .F. ) ;
#147 = EDGE_CURVE ( 'NONE', #247, #73, #263, .T. ) ;
#148 = DATE_AND_TIME ( #154, #261 ) ;
#149 = CARTESIAN_POINT ( 'NONE',  ( -18.06644961122919213, 5.000000000000000000, 10.00000000000000000 ) ) ;
#150 = EDGE_LOOP ( 'NONE', ( #134, #267, #2, #270 ) ) ;
#151 = CARTESIAN_POINT ( 'NONE',  ( -18.06644961122919213, 5.000000000000000000, 10.00000000000000000 ) ) ;
#152 = ORIENTED_EDGE ( 'NONE', *, *, #175, .T. ) ;
#153 = PLANE ( 'NONE',  #250 ) ;
#154 = CALENDAR_DATE ( 2024, 13, 5 ) ;
#155 = DIRECTION ( 'NONE',  ( -0.000000000000000000, -0.000000000000000000, -1.000000000000000000 ) ) ;
#156 = DIRECTION ( 'NONE',  ( 0.000000000000000000, 0.000000000000000000, 1.000000000000000000 ) ) ;
#157 = CARTESIAN_POINT ( 'NONE',  ( -20.06644961122918858, 5.000000000000000000, 0.000000000000000000 ) ) ;
#158 = LOCAL_TIME ( 10, 42, 33.00000000000000000, #125 ) ;
#159 = CARTESIAN_POINT ( 'NONE',  ( -18.06644961122919213, -5.000000000000000000, 10.00000000000000000 ) ) ;
#160 = DIRECTION ( 'NONE',  ( 0.000000000000000000, 0.000000000000000000, 1.000000000000000000 ) ) ;
#161 = CALENDAR_DATE ( 2024, 13, 5 ) ;
#162 = CC_DESIGN_PERSON_AND_ORGANIZATION_ASSIGNMENT ( #253, #70, ( #204 ) ) ;
#163 = CC_DESIGN_APPROVAL ( #9, ( #239 ) ) ;
#164 = AXIS2_PLACEMENT_3D ( 'NONE', #121, #208, #14 ) ;
#165 = ORIENTED_EDGE ( 'NONE', *, *, #119, .T. ) ;
#166 = ADVANCED_BREP_SHAPE_REPRESENTATION ( '155519', ( #266, #99 ), #55 ) ;
#167 = CC_DESIGN_PERSON_AND_ORGANIZATION_ASSIGNMENT ( #34, #37, ( #239 ) ) ;
#168 = FACE_OUTER_BOUND ( 'NONE', #244, .T. ) ;
#169 = FACE_OUTER_BOUND ( 'NONE', #252, .T. ) ;
#170 = CARTESIAN_POINT ( 'NONE',  ( -18.06644961122919213, -5.000000000000000000, 10.00000000000000000 ) ) ;
#171 = CARTESIAN_POINT ( 'NONE',  ( 0.000000000000000000, 0.000000000000000000, 0.000000000000000000 ) ) ;
#172 = ORIENTED_EDGE ( 'NONE', *, *, #196, .F. ) ;
#173 = DIRECTION ( 'NONE',  ( -0.000000000000000000, 1.000000000000000000, -0.000000000000000000 ) ) ;
#174 = DIRECTION ( 'NONE',  ( 1.000000000000000000, 0.000000000000000000, 0.000000000000000000 ) ) ;
#175 = EDGE_CURVE ( 'NONE', #182, #86, #127, .T. ) ;
#176 = LINE ( 'NONE', #157, #95 ) ;
#177 = VECTOR ( 'NONE', #43, 1000.000000000000000 ) ;
#178 = FACE_OUTER_BOUND ( 'NONE', #32, .T. ) ;
#179 = ORIENTED_EDGE ( 'NONE', *, *, #117, .T. ) ;
#180 = ORIENTED_EDGE ( 'NONE', *, *, #139, .T. ) ;
#181 = ORGANIZATION ( 'Î´Ö¸¶¨', 'Î´Ö¸¶¨', '' ) ;
#182 = VERTEX_POINT ( 'NONE', #5 ) ;
#183 = FACE_OUTER_BOUND ( 'NONE', #273, .T. ) ;
#184 = DIRECTION ( 'NONE',  ( -0.000000000000000000, 1.000000000000000000, -0.000000000000000000 ) ) ;
#185 = LOCAL_TIME ( 10, 42, 33.00000000000000000, #217 ) ;
#186 = CARTESIAN_POINT ( 'NONE',  ( 0.000000000000000000, 0.000000000000000000, 10.00000000000000000 ) ) ;
#187 = APPLICATION_CONTEXT ( 'configuration controlled 3d designs of mechanical parts and assemblies' ) ;
#188 = CC_DESIGN_DATE_AND_TIME_ASSIGNMENT ( #130, #1, ( #239 ) ) ;
#189 = DATE_AND_TIME ( #259, #185 ) ;
#190 = CARTESIAN_POINT ( 'NONE',  ( -20.06644961122918858, -5.000000000000000000, 0.000000000000000000 ) ) ;
#191 = VERTEX_POINT ( 'NONE', #89 ) ;
#192 = DIRECTION ( 'NONE',  ( 0.000000000000000000, 0.000000000000000000, 1.000000000000000000 ) ) ;
#193 = DIRECTION ( 'NONE',  ( -1.000000000000000000, -0.000000000000000000, -0.000000000000000000 ) ) ;
#194 = FACE_OUTER_BOUND ( 'NONE', #206, .T. ) ;
#195 = CARTESIAN_POINT ( 'NONE',  ( -20.06644961122918858, -5.000000000000000000, 10.00000000000000000 ) ) ;
#196 = EDGE_CURVE ( 'NONE', #182, #247, #257, .T. ) ;
#197 = DIRECTION ( 'NONE',  ( 1.000000000000000000, 0.000000000000000000, 0.000000000000000000 ) ) ;
#198 = EDGE_CURVE ( 'NONE', #232, #182, #16, .T. ) ;
#199 = AXIS2_PLACEMENT_3D ( 'NONE', #186, #269, #246 ) ;
#200 = DIRECTION ( 'NONE',  ( 1.000000000000000000, 0.000000000000000000, -0.000000000000000000 ) ) ;
#201 = ORIENTED_EDGE ( 'NONE', *, *, #139, .F. ) ;
#202 = ADVANCED_FACE ( 'NONE', ( #194 ), #223, .F. ) ;
#203 = ORIENTED_EDGE ( 'NONE', *, *, #3, .F. ) ;
#204 = PRODUCT_DEFINITION ( 'Î´Öª', '', #271, #144 ) ;
#205 = VERTEX_POINT ( 'NONE', #40 ) ;
#206 = EDGE_LOOP ( 'NONE', ( #272, #33, #126, #226, #100 ) ) ;
#207 = ADVANCED_FACE ( 'NONE', ( #178 ), #30, .T. ) ;
#208 = DIRECTION ( 'NONE',  ( 0.000000000000000000, -1.000000000000000000, 0.000000000000000000 ) ) ;
#209 = AXIS2_PLACEMENT_3D ( 'NONE', #136, #218, #24 ) ;
#210 = DIRECTION ( 'NONE',  ( -1.000000000000000000, 0.000000000000000000, 0.000000000000000000 ) ) ;
#211 = VECTOR ( 'NONE', #184, 1000.000000000000000 ) ;
#212 = PERSON_AND_ORGANIZATION_ROLE ( 'creator' ) ;
#213 = LINE ( 'NONE', #68, #19 ) ;
#214 = CARTESIAN_POINT ( 'NONE',  ( 0.000000000000000000, 0.000000000000000000, 0.000000000000000000 ) ) ;
#215 = ORIENTED_EDGE ( 'NONE', *, *, #198, .F. ) ;
#216 = DIRECTION ( 'NONE',  ( 0.000000000000000000, 0.000000000000000000, 1.000000000000000000 ) ) ;
#217 = COORDINATED_UNIVERSAL_TIME_OFFSET ( 8, 0, .AHEAD. ) ;
#218 = DIRECTION ( 'NONE',  ( 0.000000000000000000, 0.000000000000000000, 1.000000000000000000 ) ) ;
#219 = EDGE_CURVE ( 'NONE', #103, #247, #94, .T. ) ;
#220 = CALENDAR_DATE ( 2024, 13, 5 ) ;
#221 = DIRECTION ( 'NONE',  ( -1.000000000000000000, 0.000000000000000000, 0.000000000000000000 ) ) ;
#222 = CC_DESIGN_PERSON_AND_ORGANIZATION_ASSIGNMENT ( #80, #236, ( #271 ) ) ;
#223 = PLANE ( 'NONE',  #104 ) ;
#224 = AXIS2_PLACEMENT_3D ( 'NONE', #240, #237, #197 ) ;
#225 = ADVANCED_FACE ( 'NONE', ( #20 ), #153, .F. ) ;
#226 = ORIENTED_EDGE ( 'NONE', *, *, #111, .F. ) ;
#227 = ORIENTED_EDGE ( 'NONE', *, *, #268, .F. ) ;
#228 = VECTOR ( 'NONE', #231, 1000.000000000000000 ) ;
#229 = APPROVAL_DATE_TIME ( #148, #75 ) ;
#230 = ORIENTED_EDGE ( 'NONE', *, *, #119, .F. ) ;
#231 = DIRECTION ( 'NONE',  ( -0.000000000000000000, -0.000000000000000000, -1.000000000000000000 ) ) ;
#232 = VERTEX_POINT ( 'NONE', #4 ) ;
#233 = APPROVAL_STATUS ( 'not_yet_approved' ) ;
#234 = ORIENTED_EDGE ( 'NONE', *, *, #133, .T. ) ;
#235 = DIRECTION ( 'NONE',  ( 0.000000000000000000, -0.000000000000000000, 1.000000000000000000 ) ) ;
#236 = PERSON_AND_ORGANIZATION_ROLE ( 'design_supplier' ) ;
#237 = DIRECTION ( 'NONE',  ( 0.000000000000000000, 0.000000000000000000, 1.000000000000000000 ) ) ;
#238 = PERSON_AND_ORGANIZATION ( #265, #181 ) ;
#239 = SECURITY_CLASSIFICATION ( '', '', #45 ) ;
#240 = CARTESIAN_POINT ( 'NONE',  ( 0.000000000000000000, 0.000000000000000000, 0.000000000000000000 ) ) ;
#241 =( LENGTH_UNIT ( ) NAMED_UNIT ( * ) SI_UNIT ( .MILLI., .METRE. ) );
#242 = LOCAL_TIME ( 10, 42, 33.00000000000000000, #49 ) ;
#243 = AXIS2_PLACEMENT_3D ( 'NONE', #41, #107, #210 ) ;
#244 = EDGE_LOOP ( 'NONE', ( #179, #227, #131, #53 ) ) ;
#245 = CLOSED_SHELL ( 'NONE', ( #120, #207, #225, #71, #47, #27, #202 ) ) ;
#246 = DIRECTION ( 'NONE',  ( 1.000000000000000000, 0.000000000000000000, -0.000000000000000000 ) ) ;
#247 = VERTEX_POINT ( 'NONE', #114 ) ;
#248 = CARTESIAN_POINT ( 'NONE',  ( -18.06644961122919213, 5.000000000000000000, 10.00000000000000000 ) ) ;
#249 = EDGE_CURVE ( 'NONE', #98, #191, #64, .T. ) ;
#250 = AXIS2_PLACEMENT_3D ( 'NONE', #6, #109, #235 ) ;
#251 = SHAPE_DEFINITION_REPRESENTATION ( #62, #166 ) ;
#252 = EDGE_LOOP ( 'NONE', ( #234, #201, #203, #108 ) ) ;
#253 = PERSON_AND_ORGANIZATION ( #265, #181 ) ;
#254 = ORIENTED_EDGE ( 'NONE', *, *, #198, .T. ) ;
#255 =( NAMED_UNIT ( * ) PLANE_ANGLE_UNIT ( ) SI_UNIT ( $, .RADIAN. ) );
#256 = EDGE_CURVE ( 'NONE', #86, #73, #118, .T. ) ;
#257 = LINE ( 'NONE', #91, #143 ) ;
#258 = PERSON_AND_ORGANIZATION ( #265, #181 ) ;
#259 = CALENDAR_DATE ( 2024, 13, 5 ) ;
#260 = LINE ( 'NONE', #92, #177 ) ;
#261 = LOCAL_TIME ( 10, 42, 33.00000000000000000, #54 ) ;
#262 = DIRECTION ( 'NONE',  ( -0.000000000000000000, -0.000000000000000000, -1.000000000000000000 ) ) ;
#263 = CIRCLE ( 'NONE', #224, 20.67999999999999972 ) ;
#264 = APPROVAL ( #233, 'Î´Ö¸¶¨' ) ;
#265 = PERSON ( 'Î´Ö¸¶¨', 'Î´Ö¸¶¨', 'Î´Ö¸¶¨', ('Î´Ö¸¶¨'), ('Î´Ö¸¶¨'), ('Î´Ö¸¶¨') ) ;
#266 = MANIFOLD_SOLID_BREP ( 'Í¹Ì¨-À­Éì1', #245 ) ;
#267 = ORIENTED_EDGE ( 'NONE', *, *, #196, .T. ) ;
#268 = EDGE_CURVE ( 'NONE', #205, #13, #132, .T. ) ;
#269 = DIRECTION ( 'NONE',  ( 0.000000000000000000, 0.000000000000000000, 1.000000000000000000 ) ) ;
#270 = ORIENTED_EDGE ( 'NONE', *, *, #256, .F. ) ;
#271 = PRODUCT_DEFINITION_FORMATION_WITH_SPECIFIED_SOURCE ( 'ÈÎºÎ', '', #87, .NOT_KNOWN. ) ;
#272 = ORIENTED_EDGE ( 'NONE', *, *, #219, .F. ) ;
#273 = EDGE_LOOP ( 'NONE', ( #254, #152, #165, #21, #52 ) ) ;
#274 = DIRECTION ( 'NONE',  ( 1.000000000000000000, 0.000000000000000000, 0.000000000000000000 ) ) ;
ENDSEC;
END-ISO-10303-21;
