ISO-10303-21;
HEADER;
FILE_DESCRIPTION (( 'STEP AP203' ),
    '1' );
FILE_NAME ('155527.STEP',
    '2024-05-13T03:34:45',
    ( '' ),
    ( '' ),
    'SwSTEP 2.0',
    'SolidWorks 2020',
    '' );
FILE_SCHEMA (( 'CONFIG_CONTROL_DESIGN' ));
ENDSEC;

DATA;
#1 = EDGE_CURVE ( 'NONE', #138, #226, #72, .T. ) ;
#2 = CARTESIAN_POINT ( 'NONE',  ( -256.4516395769235828, 5.000000000000000888, 10.00000000000000000 ) ) ;
#3 = CARTESIAN_POINT ( 'NONE',  ( -256.4516395769235828, 5.000000000000000888, 10.00000000000000000 ) ) ;
#4 = DIRECTION ( 'NONE',  ( -1.000000000000000000, -1.734723475976805517E-15, 0.000000000000000000 ) ) ;
#5 = APPLICATION_CONTEXT ( 'configuration controlled 3d designs of mechanical parts and assemblies' ) ;
#6 = CARTESIAN_POINT ( 'NONE',  ( 0.000000000000000000, 0.000000000000000000, 10.00000000000000000 ) ) ;
#7 = DIRECTION ( 'NONE',  ( -0.000000000000000000, 1.000000000000000000, -0.000000000000000000 ) ) ;
#8 = EDGE_LOOP ( 'NONE', ( #162, #97, #20, #205 ) ) ;
#9 = FACE_OUTER_BOUND ( 'NONE', #107, .T. ) ;
#10 = VECTOR ( 'NONE', #194, 1000.000000000000000 ) ;
#11 = ORIENTED_EDGE ( 'NONE', *, *, #143, .T. ) ;
#12 = CC_DESIGN_APPROVAL ( #105, ( #206 ) ) ;
#13 = DATE_TIME_ROLE ( 'classification_date' ) ;
#14 = CARTESIAN_POINT ( 'NONE',  ( 0.000000000000000000, 0.000000000000000000, 0.000000000000000000 ) ) ;
#15 = PLANE ( 'NONE',  #183 ) ;
#16 = AXIS2_PLACEMENT_3D ( 'NONE', #110, #189, #96 ) ;
#17 = CC_DESIGN_PERSON_AND_ORGANIZATION_ASSIGNMENT ( #217, #125, ( #234 ) ) ;
#18 = CC_DESIGN_PERSON_AND_ORGANIZATION_ASSIGNMENT ( #146, #184, ( #167 ) ) ;
#19 = ORIENTED_EDGE ( 'NONE', *, *, #47, .T. ) ;
#20 = ORIENTED_EDGE ( 'NONE', *, *, #143, .F. ) ;
#21 = AXIS2_PLACEMENT_3D ( 'NONE', #57, #151, #201 ) ;
#22 = EDGE_CURVE ( 'NONE', #123, #226, #148, .T. ) ;
#23 = APPROVAL_STATUS ( 'not_yet_approved' ) ;
#24 = CC_DESIGN_SECURITY_CLASSIFICATION ( #206, ( #234 ) ) ;
#25 = APPROVAL_ROLE ( '' ) ;
#26 = ORIENTED_EDGE ( 'NONE', *, *, #127, .T. ) ;
#27 = CARTESIAN_POINT ( 'NONE',  ( -258.4516395769235828, -5.000000000000004441, 10.00000000000000000 ) ) ;
#28 = DIRECTION ( 'NONE',  ( -1.000000000000000000, 0.000000000000000000, 0.000000000000000000 ) ) ;
#29 = ORIENTED_EDGE ( 'NONE', *, *, #76, .F. ) ;
#30 = ORIENTED_EDGE ( 'NONE', *, *, #38, .T. ) ;
#31 = CARTESIAN_POINT ( 'NONE',  ( -256.4516395769235828, 5.000000000000000888, 10.00000000000000000 ) ) ;
#32 = DIRECTION ( 'NONE',  ( 0.000000000000000000, 0.000000000000000000, 1.000000000000000000 ) ) ;
#33 = VERTEX_POINT ( 'NONE', #192 ) ;
#34 = CARTESIAN_POINT ( 'NONE',  ( -258.4516395769235828, -5.000000000000004441, 0.000000000000000000 ) ) ;
#35 = CC_DESIGN_PERSON_AND_ORGANIZATION_ASSIGNMENT ( #241, #198, ( #234 ) ) ;
#36 = CIRCLE ( 'NONE', #43, 258.5000000000000000 ) ;
#37 = PRODUCT ( '155527', '155527', '', ( #145 ) ) ;
#38 = EDGE_CURVE ( 'NONE', #33, #246, #266, .T. ) ;
#39 = VECTOR ( 'NONE', #77, 1000.000000000000000 ) ;
#40 = EDGE_LOOP ( 'NONE', ( #137, #19, #30, #142 ) ) ;
#41 = VERTEX_POINT ( 'NONE', #136 ) ;
#42 = DATE_AND_TIME ( #227, #245 ) ;
#43 = AXIS2_PLACEMENT_3D ( 'NONE', #134, #190, #236 ) ;
#44 = APPROVAL_DATE_TIME ( #42, #105 ) ;
#45 = DESIGN_CONTEXT ( 'detailed design', #250, 'design' ) ;
#46 = COORDINATED_UNIVERSAL_TIME_OFFSET ( 8, 0, .AHEAD. ) ;
#47 = EDGE_CURVE ( 'NONE', #268, #33, #92, .T. ) ;
#48 = VECTOR ( 'NONE', #113, 1000.000000000000000 ) ;
#49 = FACE_OUTER_BOUND ( 'NONE', #8, .T. ) ;
#50 = FACE_OUTER_BOUND ( 'NONE', #197, .T. ) ;
#51 = DIRECTION ( 'NONE',  ( -0.000000000000000000, -0.000000000000000000, -1.000000000000000000 ) ) ;
#52 = CARTESIAN_POINT ( 'NONE',  ( -258.4516395769235828, 5.000000000000004441, 0.000000000000000000 ) ) ;
#53 =( LENGTH_UNIT ( ) NAMED_UNIT ( * ) SI_UNIT ( .MILLI., .METRE. ) );
#54 = CARTESIAN_POINT ( 'NONE',  ( -258.4516395769235828, 5.000000000000004441, 10.00000000000000000 ) ) ;
#55 = ORIENTED_EDGE ( 'NONE', *, *, #61, .F. ) ;
#56 = EDGE_CURVE ( 'NONE', #41, #269, #173, .T. ) ;
#57 = CARTESIAN_POINT ( 'NONE',  ( -258.4516395769235828, 5.000000000000004441, 10.00000000000000000 ) ) ;
#58 = ORIENTED_EDGE ( 'NONE', *, *, #182, .T. ) ;
#59 = DATE_AND_TIME ( #176, #163 ) ;
#60 = CARTESIAN_POINT ( 'NONE',  ( 0.000000000000000000, 0.000000000000000000, 10.00000000000000000 ) ) ;
#61 = EDGE_CURVE ( 'NONE', #138, #41, #238, .T. ) ;
#62 = VECTOR ( 'NONE', #256, 1000.000000000000000 ) ;
#63 = ORIENTED_EDGE ( 'NONE', *, *, #127, .F. ) ;
#64 = CIRCLE ( 'NONE', #267, 258.5000000000000000 ) ;
#65 = ORIENTED_EDGE ( 'NONE', *, *, #22, .F. ) ;
#66 = COORDINATED_UNIVERSAL_TIME_OFFSET ( 8, 0, .AHEAD. ) ;
#67 = DIRECTION ( 'NONE',  ( 0.000000000000000000, 0.000000000000000000, 1.000000000000000000 ) ) ;
#68 = ADVANCED_FACE ( 'NONE', ( #216 ), #211, .T. ) ;
#69 = PERSON_AND_ORGANIZATION ( #99, #131 ) ;
#70 = CARTESIAN_POINT ( 'NONE',  ( -256.4516395769235828, -5.000000000000000888, 10.00000000000000000 ) ) ;
#71 = CARTESIAN_POINT ( 'NONE',  ( -258.4516395769235828, 5.000000000000004441, 0.000000000000000000 ) ) ;
#72 = LINE ( 'NONE', #3, #39 ) ;
#73 = APPROVAL_PERSON_ORGANIZATION ( #231, #243, #25 ) ;
#74 = LINE ( 'NONE', #52, #244 ) ;
#75 = FACE_OUTER_BOUND ( 'NONE', #240, .T. ) ;
#76 = EDGE_CURVE ( 'NONE', #246, #123, #116, .T. ) ;
#77 = DIRECTION ( 'NONE',  ( -0.000000000000000000, -0.000000000000000000, -1.000000000000000000 ) ) ;
#78 = CARTESIAN_POINT ( 'NONE',  ( -256.4516395769235828, 5.000000000000000888, 10.00000000000000000 ) ) ;
#79 = PERSON_AND_ORGANIZATION_ROLE ( 'classification_officer' ) ;
#80 = FACE_OUTER_BOUND ( 'NONE', #193, .T. ) ;
#81 = VECTOR ( 'NONE', #168, 1000.000000000000000 ) ;
#82 = CARTESIAN_POINT ( 'NONE',  ( 0.000000000000000000, 0.000000000000000000, 0.000000000000000000 ) ) ;
#83 = CLOSED_SHELL ( 'NONE', ( #249, #68, #122, #179, #252, #271, #164 ) ) ;
#84 = VERTEX_POINT ( 'NONE', #70 ) ;
#85 = ORIENTED_EDGE ( 'NONE', *, *, #1, .T. ) ;
#86 = CC_DESIGN_PERSON_AND_ORGANIZATION_ASSIGNMENT ( #165, #89, ( #37 ) ) ;
#87 = ORIENTED_EDGE ( 'NONE', *, *, #22, .T. ) ;
#88 = CARTESIAN_POINT ( 'NONE',  ( 0.000000000000000000, 0.000000000000000000, 0.000000000000000000 ) ) ;
#89 = PERSON_AND_ORGANIZATION_ROLE ( 'design_owner' ) ;
#90 = DATE_AND_TIME ( #118, #149 ) ;
#91 = CARTESIAN_POINT ( 'NONE',  ( -258.4516395769235828, -5.000000000000004441, 10.00000000000000000 ) ) ;
#92 = LINE ( 'NONE', #170, #178 ) ;
#93 = DIRECTION ( 'NONE',  ( -0.000000000000000000, -0.000000000000000000, -1.000000000000000000 ) ) ;
#94 = PLANE ( 'NONE',  #21 ) ;
#95 = EDGE_CURVE ( 'NONE', #84, #138, #233, .T. ) ;
#96 = DIRECTION ( 'NONE',  ( 1.000000000000000000, 0.000000000000000000, 0.000000000000000000 ) ) ;
#97 = ORIENTED_EDGE ( 'NONE', *, *, #182, .F. ) ;
#98 = CARTESIAN_POINT ( 'NONE',  ( 0.000000000000000000, 0.000000000000000000, 10.00000000000000000 ) ) ;
#99 = PERSON ( 'Î´Ö¸¶¨', 'Î´Ö¸¶¨', 'Î´Ö¸¶¨', ('Î´Ö¸¶¨'), ('Î´Ö¸¶¨'), ('Î´Ö¸¶¨') ) ;
#100 = ORIENTED_EDGE ( 'NONE', *, *, #56, .T. ) ;
#101 = APPROVAL_STATUS ( 'not_yet_approved' ) ;
#102 = PLANE ( 'NONE',  #273 ) ;
#103 = CARTESIAN_POINT ( 'NONE',  ( -256.4516395769235828, 5.000000000000000888, 0.000000000000000000 ) ) ;
#104 = AXIS2_PLACEMENT_3D ( 'NONE', #171, #212, #4 ) ;
#105 = APPROVAL ( #101, 'Î´Ö¸¶¨' ) ;
#106 = ORIENTED_EDGE ( 'NONE', *, *, #175, .F. ) ;
#107 = EDGE_LOOP ( 'NONE', ( #219, #247, #11, #160, #115 ) ) ;
#108 = CC_DESIGN_APPROVAL ( #264, ( #234 ) ) ;
#109 = APPLICATION_PROTOCOL_DEFINITION ( 'international standard', 'config_control_design', 1994, #5 ) ;
#110 = CARTESIAN_POINT ( 'NONE',  ( 0.000000000000000000, 0.000000000000000000, 0.000000000000000000 ) ) ;
#111 = PRODUCT_RELATED_PRODUCT_CATEGORY ( 'detail', '', ( #37 ) ) ;
#112 = CARTESIAN_POINT ( 'NONE',  ( -256.4516395769235828, -5.000000000000000888, 0.000000000000000000 ) ) ;
#113 = DIRECTION ( 'NONE',  ( -0.000000000000000000, -0.000000000000000000, -1.000000000000000000 ) ) ;
#114 = EDGE_LOOP ( 'NONE', ( #180, #106, #100, #239 ) ) ;
#115 = ORIENTED_EDGE ( 'NONE', *, *, #61, .T. ) ;
#116 = LINE ( 'NONE', #257, #119 ) ;
#117 = LINE ( 'NONE', #255, #48 ) ;
#118 = CALENDAR_DATE ( 2024, 13, 5 ) ;
#119 = VECTOR ( 'NONE', #254, 1000.000000000000000 ) ;
#120 = MANIFOLD_SOLID_BREP ( 'Í¹Ì¨-À­Éì1', #83 ) ;
#121 = APPROVAL_PERSON_ORGANIZATION ( #69, #264, #229 ) ;
#122 = ADVANCED_FACE ( 'NONE', ( #49 ), #188, .F. ) ;
#123 = VERTEX_POINT ( 'NONE', #112 ) ;
#124 = ORIENTED_EDGE ( 'NONE', *, *, #1, .F. ) ;
#125 = PERSON_AND_ORGANIZATION_ROLE ( 'creator' ) ;
#126 = AXIS2_PLACEMENT_3D ( 'NONE', #78, #28, #157 ) ;
#127 = EDGE_CURVE ( 'NONE', #226, #269, #74, .T. ) ;
#128 = PERSON_AND_ORGANIZATION ( #99, #131 ) ;
#129 = PRODUCT_DEFINITION_SHAPE ( 'NONE', 'NONE',  #167 ) ;
#130 = DATE_AND_TIME ( #144, #221 ) ;
#131 = ORGANIZATION ( 'Î´Ö¸¶¨', 'Î´Ö¸¶¨', '' ) ;
#132 = DIRECTION ( 'NONE',  ( -1.000000000000000000, 0.000000000000000000, 0.000000000000000000 ) ) ;
#133 = DIRECTION ( 'NONE',  ( 1.000000000000000000, 0.000000000000000000, 0.000000000000000000 ) ) ;
#134 = CARTESIAN_POINT ( 'NONE',  ( 0.000000000000000000, 0.000000000000000000, 10.00000000000000000 ) ) ;
#135 =( NAMED_UNIT ( * ) PLANE_ANGLE_UNIT ( ) SI_UNIT ( $, .RADIAN. ) );
#136 = CARTESIAN_POINT ( 'NONE',  ( -258.4516395769235828, 5.000000000000004441, 10.00000000000000000 ) ) ;
#137 = ORIENTED_EDGE ( 'NONE', *, *, #154, .F. ) ;
#138 = VERTEX_POINT ( 'NONE', #2 ) ;
#139 = PERSON_AND_ORGANIZATION ( #99, #131 ) ;
#140 = ORIENTED_EDGE ( 'NONE', *, *, #38, .F. ) ;
#141 = AXIS2_PLACEMENT_3D ( 'NONE', #6, #218, #237 ) ;
#142 = ORIENTED_EDGE ( 'NONE', *, *, #230, .F. ) ;
#143 = EDGE_CURVE ( 'NONE', #152, #84, #150, .T. ) ;
#144 = CALENDAR_DATE ( 2024, 13, 5 ) ;
#145 = MECHANICAL_CONTEXT ( 'NONE', #5, 'mechanical' ) ;
#146 = PERSON_AND_ORGANIZATION ( #99, #131 ) ;
#147 = CARTESIAN_POINT ( 'NONE',  ( 0.000000000000000000, 0.000000000000000000, 10.00000000000000000 ) ) ;
#148 = LINE ( 'NONE', #235, #224 ) ;
#149 = LOCAL_TIME ( 11, 34, 45.00000000000000000, #274 ) ;
#150 = LINE ( 'NONE', #91, #81 ) ;
#151 = DIRECTION ( 'NONE',  ( -1.734723475976805517E-15, -1.000000000000000000, 0.000000000000000000 ) ) ;
#152 = VERTEX_POINT ( 'NONE', #27 ) ;
#153 = CARTESIAN_POINT ( 'NONE',  ( -256.4516395769235828, -5.000000000000000888, 10.00000000000000000 ) ) ;
#154 = EDGE_CURVE ( 'NONE', #268, #152, #36, .T. ) ;
#155 = APPROVAL_ROLE ( '' ) ;
#156 = AXIS2_PLACEMENT_3D ( 'NONE', #88, #67, #253 ) ;
#157 = DIRECTION ( 'NONE',  ( 0.000000000000000000, 0.000000000000000000, 1.000000000000000000 ) ) ;
#158 = CC_DESIGN_PERSON_AND_ORGANIZATION_ASSIGNMENT ( #128, #79, ( #206 ) ) ;
#159 = CIRCLE ( 'NONE', #228, 258.5000000000000000 ) ;
#160 = ORIENTED_EDGE ( 'NONE', *, *, #95, .T. ) ;
#161 = CC_DESIGN_DATE_AND_TIME_ASSIGNMENT ( #185, #13, ( #206 ) ) ;
#162 = ORIENTED_EDGE ( 'NONE', *, *, #76, .T. ) ;
#163 = LOCAL_TIME ( 11, 34, 45.00000000000000000, #262 ) ;
#164 = ADVANCED_FACE ( 'NONE', ( #50 ), #15, .F. ) ;
#165 = PERSON_AND_ORGANIZATION ( #99, #131 ) ;
#166 = SECURITY_CLASSIFICATION_LEVEL ( 'unclassified' ) ;
#167 = PRODUCT_DEFINITION ( 'Î´Öª', '', #234, #45 ) ;
#168 = DIRECTION ( 'NONE',  ( 1.000000000000000000, 1.734723475976805517E-15, 0.000000000000000000 ) ) ;
#169 = DIRECTION ( 'NONE',  ( 0.000000000000000000, 0.000000000000000000, 1.000000000000000000 ) ) ;
#170 = CARTESIAN_POINT ( 'NONE',  ( -258.5000000000000000, 0.000000000000000000, 10.00000000000000000 ) ) ;
#171 = CARTESIAN_POINT ( 'NONE',  ( -258.4516395769235828, -5.000000000000004441, 10.00000000000000000 ) ) ;
#172 = LINE ( 'NONE', #153, #210 ) ;
#173 = LINE ( 'NONE', #260, #187 ) ;
#174 = DIRECTION ( 'NONE',  ( 0.000000000000000000, 0.000000000000000000, 1.000000000000000000 ) ) ;
#175 = EDGE_CURVE ( 'NONE', #41, #268, #64, .T. ) ;
#176 = CALENDAR_DATE ( 2024, 13, 5 ) ;
#177 = DIRECTION ( 'NONE',  ( 1.000000000000000000, 0.000000000000000000, 0.000000000000000000 ) ) ;
#178 = VECTOR ( 'NONE', #214, 1000.000000000000000 ) ;
#179 = ADVANCED_FACE ( 'NONE', ( #80 ), #213, .F. ) ;
#180 = ORIENTED_EDGE ( 'NONE', *, *, #47, .F. ) ;
#181 = ORIENTED_EDGE ( 'NONE', *, *, #95, .F. ) ;
#182 = EDGE_CURVE ( 'NONE', #84, #123, #172, .T. ) ;
#183 = AXIS2_PLACEMENT_3D ( 'NONE', #82, #32, #199 ) ;
#184 = PERSON_AND_ORGANIZATION_ROLE ( 'creator' ) ;
#185 = DATE_AND_TIME ( #220, #196 ) ;
#186 = UNCERTAINTY_MEASURE_WITH_UNIT (LENGTH_MEASURE( 1.000000000000000082E-05 ), #53, 'distance_accuracy_value', 'NONE');
#187 = VECTOR ( 'NONE', #51, 1000.000000000000000 ) ;
#188 = PLANE ( 'NONE',  #104 ) ;
#189 = DIRECTION ( 'NONE',  ( 0.000000000000000000, 0.000000000000000000, 1.000000000000000000 ) ) ;
#190 = DIRECTION ( 'NONE',  ( 0.000000000000000000, 0.000000000000000000, 1.000000000000000000 ) ) ;
#191 = CYLINDRICAL_SURFACE ( 'NONE', #141, 258.5000000000000000 ) ;
#192 = CARTESIAN_POINT ( 'NONE',  ( -258.5000000000000000, 0.000000000000000000, 0.000000000000000000 ) ) ;
#193 = EDGE_LOOP ( 'NONE', ( #87, #124, #181, #58 ) ) ;
#194 = DIRECTION ( 'NONE',  ( -0.000000000000000000, 1.000000000000000000, -0.000000000000000000 ) ) ;
#195 = CARTESIAN_POINT ( 'NONE',  ( -258.5000000000000000, 0.000000000000000000, 10.00000000000000000 ) ) ;
#196 = LOCAL_TIME ( 11, 34, 45.00000000000000000, #251 ) ;
#197 = EDGE_LOOP ( 'NONE', ( #204, #63, #65, #29, #140 ) ) ;
#198 = PERSON_AND_ORGANIZATION_ROLE ( 'design_supplier' ) ;
#199 = DIRECTION ( 'NONE',  ( 1.000000000000000000, 0.000000000000000000, -0.000000000000000000 ) ) ;
#200 = APPROVAL_PERSON_ORGANIZATION ( #139, #105, #155 ) ;
#201 = DIRECTION ( 'NONE',  ( 1.000000000000000000, -1.734723475976805517E-15, 0.000000000000000000 ) ) ;
#202 = CC_DESIGN_APPROVAL ( #243, ( #167 ) ) ;
#203 = ADVANCED_BREP_SHAPE_REPRESENTATION ( '155527', ( #120, #156 ), #248 ) ;
#204 = ORIENTED_EDGE ( 'NONE', *, *, #225, .F. ) ;
#205 = ORIENTED_EDGE ( 'NONE', *, *, #230, .T. ) ;
#206 = SECURITY_CLASSIFICATION ( '', '', #166 ) ;
#207 = APPROVAL_DATE_TIME ( #59, #243 ) ;
#208 = SHAPE_DEFINITION_REPRESENTATION ( #129, #203 ) ;
#209 = DATE_TIME_ROLE ( 'creation_date' ) ;
#210 = VECTOR ( 'NONE', #258, 1000.000000000000000 ) ;
#211 = CYLINDRICAL_SURFACE ( 'NONE', #259, 258.5000000000000000 ) ;
#212 = DIRECTION ( 'NONE',  ( -1.734723475976805517E-15, 1.000000000000000000, 0.000000000000000000 ) ) ;
#213 = PLANE ( 'NONE',  #126 ) ;
#214 = DIRECTION ( 'NONE',  ( -0.000000000000000000, -0.000000000000000000, -1.000000000000000000 ) ) ;
#215 = DIRECTION ( 'NONE',  ( -1.000000000000000000, 1.734723475976805517E-15, -0.000000000000000000 ) ) ;
#216 = FACE_OUTER_BOUND ( 'NONE', #114, .T. ) ;
#217 = PERSON_AND_ORGANIZATION ( #99, #131 ) ;
#218 = DIRECTION ( 'NONE',  ( -0.000000000000000000, -0.000000000000000000, -1.000000000000000000 ) ) ;
#219 = ORIENTED_EDGE ( 'NONE', *, *, #175, .T. ) ;
#220 = CALENDAR_DATE ( 2024, 13, 5 ) ;
#221 = LOCAL_TIME ( 11, 34, 45.00000000000000000, #46 ) ;
#222 = CC_DESIGN_DATE_AND_TIME_ASSIGNMENT ( #130, #209, ( #167 ) ) ;
#223 = ORIENTED_EDGE ( 'NONE', *, *, #56, .F. ) ;
#224 = VECTOR ( 'NONE', #7, 1000.000000000000000 ) ;
#225 = EDGE_CURVE ( 'NONE', #269, #33, #159, .T. ) ;
#226 = VERTEX_POINT ( 'NONE', #103 ) ;
#227 = CALENDAR_DATE ( 2024, 13, 5 ) ;
#228 = AXIS2_PLACEMENT_3D ( 'NONE', #14, #169, #133 ) ;
#229 = APPROVAL_ROLE ( '' ) ;
#230 = EDGE_CURVE ( 'NONE', #152, #246, #117, .T. ) ;
#231 = PERSON_AND_ORGANIZATION ( #99, #131 ) ;
#232 = APPROVAL_STATUS ( 'not_yet_approved' ) ;
#233 = LINE ( 'NONE', #31, #10 ) ;
#234 = PRODUCT_DEFINITION_FORMATION_WITH_SPECIFIED_SOURCE ( 'ÈÎºÎ', '', #37, .NOT_KNOWN. ) ;
#235 = CARTESIAN_POINT ( 'NONE',  ( -256.4516395769235828, 5.000000000000000888, 0.000000000000000000 ) ) ;
#236 = DIRECTION ( 'NONE',  ( 1.000000000000000000, 0.000000000000000000, 0.000000000000000000 ) ) ;
#237 = DIRECTION ( 'NONE',  ( -1.000000000000000000, 0.000000000000000000, 0.000000000000000000 ) ) ;
#238 = LINE ( 'NONE', #54, #62 ) ;
#239 = ORIENTED_EDGE ( 'NONE', *, *, #225, .T. ) ;
#240 = EDGE_LOOP ( 'NONE', ( #26, #223, #55, #85 ) ) ;
#241 = PERSON_AND_ORGANIZATION ( #99, #131 ) ;
#242 = DIRECTION ( 'NONE',  ( 1.000000000000000000, 0.000000000000000000, -0.000000000000000000 ) ) ;
#243 = APPROVAL ( #23, 'Î´Ö¸¶¨' ) ;
#244 = VECTOR ( 'NONE', #215, 1000.000000000000000 ) ;
#245 = LOCAL_TIME ( 11, 34, 45.00000000000000000, #66 ) ;
#246 = VERTEX_POINT ( 'NONE', #34 ) ;
#247 = ORIENTED_EDGE ( 'NONE', *, *, #154, .T. ) ;
#248 =( GEOMETRIC_REPRESENTATION_CONTEXT ( 3 ) GLOBAL_UNCERTAINTY_ASSIGNED_CONTEXT ( ( #186 ) ) GLOBAL_UNIT_ASSIGNED_CONTEXT ( ( #53, #135, #263 ) ) REPRESENTATION_CONTEXT ( 'NONE', 'WORKASPACE' ) );
#249 = ADVANCED_FACE ( 'NONE', ( #265 ), #191, .T. ) ;
#250 = APPLICATION_CONTEXT ( 'configuration controlled 3d designs of mechanical parts and assemblies' ) ;
#251 = COORDINATED_UNIVERSAL_TIME_OFFSET ( 8, 0, .AHEAD. ) ;
#252 = ADVANCED_FACE ( 'NONE', ( #75 ), #94, .F. ) ;
#253 = DIRECTION ( 'NONE',  ( 1.000000000000000000, 0.000000000000000000, 0.000000000000000000 ) ) ;
#254 = DIRECTION ( 'NONE',  ( 1.000000000000000000, 1.734723475976805517E-15, 0.000000000000000000 ) ) ;
#255 = CARTESIAN_POINT ( 'NONE',  ( -258.4516395769235828, -5.000000000000004441, 10.00000000000000000 ) ) ;
#256 = DIRECTION ( 'NONE',  ( -1.000000000000000000, 1.734723475976805517E-15, -0.000000000000000000 ) ) ;
#257 = CARTESIAN_POINT ( 'NONE',  ( -258.4516395769235828, -5.000000000000004441, 0.000000000000000000 ) ) ;
#258 = DIRECTION ( 'NONE',  ( -0.000000000000000000, -0.000000000000000000, -1.000000000000000000 ) ) ;
#259 = AXIS2_PLACEMENT_3D ( 'NONE', #147, #93, #132 ) ;
#260 = CARTESIAN_POINT ( 'NONE',  ( -258.4516395769235828, 5.000000000000004441, 10.00000000000000000 ) ) ;
#261 = DIRECTION ( 'NONE',  ( 0.000000000000000000, 0.000000000000000000, 1.000000000000000000 ) ) ;
#262 = COORDINATED_UNIVERSAL_TIME_OFFSET ( 8, 0, .AHEAD. ) ;
#263 =( NAMED_UNIT ( * ) SI_UNIT ( $, .STERADIAN. ) SOLID_ANGLE_UNIT ( ) );
#264 = APPROVAL ( #232, 'Î´Ö¸¶¨' ) ;
#265 = FACE_OUTER_BOUND ( 'NONE', #40, .T. ) ;
#266 = CIRCLE ( 'NONE', #16, 258.5000000000000000 ) ;
#267 = AXIS2_PLACEMENT_3D ( 'NONE', #60, #174, #177 ) ;
#268 = VERTEX_POINT ( 'NONE', #195 ) ;
#269 = VERTEX_POINT ( 'NONE', #71 ) ;
#270 = APPROVAL_DATE_TIME ( #90, #264 ) ;
#271 = ADVANCED_FACE ( 'NONE', ( #9 ), #102, .T. ) ;
#272 = APPLICATION_PROTOCOL_DEFINITION ( 'international standard', 'config_control_design', 1994, #250 ) ;
#273 = AXIS2_PLACEMENT_3D ( 'NONE', #98, #261, #242 ) ;
#274 = COORDINATED_UNIVERSAL_TIME_OFFSET ( 8, 0, .AHEAD. ) ;
ENDSEC;
END-ISO-10303-21;
