ISO-10303-21;
HEADER;
FILE_DESCRIPTION (( 'STEP AP214' ),
    '1' );
FILE_NAME ('260003.STEP',
    '2019-07-15T02:58:29',
    ( '' ),
    ( '' ),
    'SwSTEP 2.0',
    'SolidWorks 2016',
    '' );
FILE_SCHEMA (( 'AUTOMOTIVE_DESIGN' ));
ENDSEC;

DATA;
#1 = EDGE_LOOP ( 'NONE', ( #72, #106, #131, #19 ) ) ;
#2 = EDGE_CURVE ( 'NONE', #61, #122, #111, .T. ) ;
#3 = SHAPE_DEFINITION_REPRESENTATION ( #103, #15 ) ;
#4 = UNCERTAINTY_MEASURE_WITH_UNIT (LENGTH_MEASURE( 1.000000000000000100E-005 ), #138, 'distance_accuracy_value', 'NONE');
#5 = EDGE_CURVE ( 'NONE', #122, #87, #62, .T. ) ;
#6 = ORIENTED_EDGE ( 'NONE', *, *, #121, .T. ) ;
#7 = DIRECTION ( 'NONE',  ( -0.0000000000000000000, 0.0000000000000000000, 1.000000000000000000 ) ) ;
#8 = CARTESIAN_POINT ( 'NONE',  ( 132.0785702462804900, 38.64658967450770900, 0.0000000000000000000 ) ) ;
#9 = ORIENTED_EDGE ( 'NONE', *, *, #5, .T. ) ;
#10 = CARTESIAN_POINT ( 'NONE',  ( 127.0004009963080200, 38.64658967450770900, -6.249999999999992000 ) ) ;
#11 = DIRECTION ( 'NONE',  ( 0.0000000000000000000, 0.0000000000000000000, 1.000000000000000000 ) ) ;
#12 = AXIS2_PLACEMENT_3D ( 'NONE', #113, #80, #91 ) ;
#13 = MECHANICAL_DESIGN_GEOMETRIC_PRESENTATION_REPRESENTATION (  '', ( #36 ), #45 ) ;
#14 = FACE_OUTER_BOUND ( 'NONE', #1, .T. ) ;
#15 = ADVANCED_BREP_SHAPE_REPRESENTATION ( '260003', ( #43, #112 ), #97 ) ;
#16 = CARTESIAN_POINT ( 'NONE',  ( 127.0004009963080200, 38.64658967450770900, 0.0000000000000000000 ) ) ;
#17 = SURFACE_SIDE_STYLE ('',( #34 ) ) ;
#18 =( NAMED_UNIT ( * ) SI_UNIT ( $, .STERADIAN. ) SOLID_ANGLE_UNIT ( ) );
#19 = ORIENTED_EDGE ( 'NONE', *, *, #44, .F. ) ;
#20 = SURFACE_STYLE_FILL_AREA ( #53 ) ;
#21 =( LENGTH_UNIT ( ) NAMED_UNIT ( * ) SI_UNIT ( .MILLI., .METRE. ) );
#22 = APPLICATION_PROTOCOL_DEFINITION ( 'draft international standard', 'automotive_design', 1998, #28 ) ;
#23 = CIRCLE ( 'NONE', #58, 6.249999999999992000 ) ;
#24 = FACE_OUTER_BOUND ( 'NONE', #101, .T. ) ;
#25 = FACE_OUTER_BOUND ( 'NONE', #30, .T. ) ;
#26 = CARTESIAN_POINT ( 'NONE',  ( 130.0785702462804900, 38.64658967450770900, -6.249999999999992000 ) ) ;
#27 = CARTESIAN_POINT ( 'NONE',  ( 132.0785702462804900, 38.64658967450770200, 0.0000000000000000000 ) ) ;
#28 = APPLICATION_CONTEXT ( 'automotive_design' ) ;
#29 = PLANE ( 'NONE',  #63 ) ;
#30 = EDGE_LOOP ( 'NONE', ( #9, #119 ) ) ;
#31 = ORIENTED_EDGE ( 'NONE', *, *, #68, .F. ) ;
#32 = AXIS2_PLACEMENT_3D ( 'NONE', #98, #54, #71 ) ;
#33 = ADVANCED_FACE ( 'NONE', ( #14 ), #95, .T. ) ;
#34 = SURFACE_STYLE_FILL_AREA ( #133 ) ;
#35 = DIRECTION ( 'NONE',  ( 0.0000000000000000000, 0.0000000000000000000, 1.000000000000000000 ) ) ;
#36 = STYLED_ITEM ( 'NONE', ( #118 ), #43 ) ;
#37 = CARTESIAN_POINT ( 'NONE',  ( 130.0785702462804900, 38.64658967450770900, 6.249999999999992000 ) ) ;
#38 = DIRECTION ( 'NONE',  ( -1.000000000000000000, -0.0000000000000000000, -0.0000000000000000000 ) ) ;
#39 = DIRECTION ( 'NONE',  ( 0.0000000000000000000, 0.0000000000000000000, 1.000000000000000000 ) ) ;
#40 = FILL_AREA_STYLE_COLOUR ( '', #99 ) ;
#41 = MECHANICAL_DESIGN_GEOMETRIC_PRESENTATION_REPRESENTATION (  '', ( #100 ), #125 ) ;
#42 =( NAMED_UNIT ( * ) SI_UNIT ( $, .STERADIAN. ) SOLID_ANGLE_UNIT ( ) );
#43 = MANIFOLD_SOLID_BREP ( 'Ðý×ª1', #55 ) ;
#44 = EDGE_CURVE ( 'NONE', #87, #122, #140, .T. ) ;
#45 =( GEOMETRIC_REPRESENTATION_CONTEXT ( 3 ) GLOBAL_UNCERTAINTY_ASSIGNED_CONTEXT ( ( #117 ) ) GLOBAL_UNIT_ASSIGNED_CONTEXT ( ( #114, #52, #18 ) ) REPRESENTATION_CONTEXT ( 'NONE', 'WORKASPACE' ) );
#46 = ORIENTED_EDGE ( 'NONE', *, *, #5, .F. ) ;
#47 = CYLINDRICAL_SURFACE ( 'NONE', #76, 6.249999999999992000 ) ;
#48 = AXIS2_PLACEMENT_3D ( 'NONE', #16, #104, #35 ) ;
#49 = VECTOR ( 'NONE', #59, 1000.000000000000000 ) ;
#50 = DIRECTION ( 'NONE',  ( -1.000000000000000000, -0.0000000000000000000, -0.0000000000000000000 ) ) ;
#51 = PRESENTATION_LAYER_ASSIGNMENT (  '', '', ( #36 ) ) ;
#52 =( NAMED_UNIT ( * ) PLANE_ANGLE_UNIT ( ) SI_UNIT ( $, .RADIAN. ) );
#53 = FILL_AREA_STYLE ('',( #40 ) ) ;
#54 = DIRECTION ( 'NONE',  ( -1.000000000000000000, -0.0000000000000000000, -0.0000000000000000000 ) ) ;
#55 = CLOSED_SHELL ( 'NONE', ( #120, #77, #33, #57 ) ) ;
#56 = AXIS2_PLACEMENT_3D ( 'NONE', #27, #69, #7 ) ;
#57 = ADVANCED_FACE ( 'NONE', ( #25 ), #29, .F. ) ;
#58 = AXIS2_PLACEMENT_3D ( 'NONE', #8, #38, #139 ) ;
#59 = DIRECTION ( 'NONE',  ( -1.000000000000000000, -0.0000000000000000000, -0.0000000000000000000 ) ) ;
#60 = UNCERTAINTY_MEASURE_WITH_UNIT (LENGTH_MEASURE( 1.000000000000000100E-005 ), #21, 'distance_accuracy_value', 'NONE');
#61 = VERTEX_POINT ( 'NONE', #105 ) ;
#62 = CIRCLE ( 'NONE', #12, 6.249999999999992000 ) ;
#63 = AXIS2_PLACEMENT_3D ( 'NONE', #127, #82, #66 ) ;
#64 = DIRECTION ( 'NONE',  ( 0.0000000000000000000, 0.0000000000000000000, 1.000000000000000000 ) ) ;
#65 =( NAMED_UNIT ( * ) SI_UNIT ( $, .STERADIAN. ) SOLID_ANGLE_UNIT ( ) );
#66 = DIRECTION ( 'NONE',  ( 0.0000000000000000000, 0.0000000000000000000, -1.000000000000000000 ) ) ;
#67 = DIRECTION ( 'NONE',  ( -1.000000000000000000, -0.0000000000000000000, -0.0000000000000000000 ) ) ;
#68 = EDGE_CURVE ( 'NONE', #61, #102, #23, .T. ) ;
#69 = DIRECTION ( 'NONE',  ( -1.000000000000000000, 0.0000000000000000000, -0.0000000000000000000 ) ) ;
#70 = EDGE_LOOP ( 'NONE', ( #31, #129 ) ) ;
#71 = DIRECTION ( 'NONE',  ( 0.0000000000000000000, 0.0000000000000000000, 1.000000000000000000 ) ) ;
#72 = ORIENTED_EDGE ( 'NONE', *, *, #121, .F. ) ;
#73 = APPLICATION_PROTOCOL_DEFINITION ( 'draft international standard', 'automotive_design', 1998, #136 ) ;
#74 = CARTESIAN_POINT ( 'NONE',  ( 132.0785702462804900, 38.64658967450770900, -6.249999999999992000 ) ) ;
#75 = CARTESIAN_POINT ( 'NONE',  ( 0.0000000000000000000, 0.0000000000000000000, 0.0000000000000000000 ) ) ;
#76 = AXIS2_PLACEMENT_3D ( 'NONE', #108, #50, #39 ) ;
#77 = ADVANCED_FACE ( 'NONE', ( #134 ), #96, .F. ) ;
#78 = PRESENTATION_STYLE_ASSIGNMENT (( #128 ) ) ;
#79 = PRODUCT_DEFINITION ( 'Î´Öª', '', #130, #90 ) ;
#80 = DIRECTION ( 'NONE',  ( -1.000000000000000000, -0.0000000000000000000, -0.0000000000000000000 ) ) ;
#81 = VECTOR ( 'NONE', #84, 1000.000000000000000 ) ;
#82 = DIRECTION ( 'NONE',  ( 1.000000000000000000, 0.0000000000000000000, 0.0000000000000000000 ) ) ;
#83 = LINE ( 'NONE', #10, #81 ) ;
#84 = DIRECTION ( 'NONE',  ( -1.000000000000000000, -0.0000000000000000000, -0.0000000000000000000 ) ) ;
#85 = COLOUR_RGB ( '',1.000000000000000000, 1.000000000000000000, 1.000000000000000000 ) ;
#86 = ORIENTED_EDGE ( 'NONE', *, *, #2, .F. ) ;
#87 = VERTEX_POINT ( 'NONE', #26 ) ;
#88 = AXIS2_PLACEMENT_3D ( 'NONE', #115, #67, #64 ) ;
#89 = CARTESIAN_POINT ( 'NONE',  ( 127.0004009963080200, 38.64658967450770900, 6.249999999999992000 ) ) ;
#90 = PRODUCT_DEFINITION_CONTEXT ( 'detailed design', #28, 'design' ) ;
#91 = DIRECTION ( 'NONE',  ( 0.0000000000000000000, 0.0000000000000000000, 1.000000000000000000 ) ) ;
#92 = PRODUCT ( '260003', '260003', '', ( #116 ) ) ;
#93 = SURFACE_STYLE_USAGE ( .BOTH. , #17 ) ;
#94 =( NAMED_UNIT ( * ) PLANE_ANGLE_UNIT ( ) SI_UNIT ( $, .RADIAN. ) );
#95 = CYLINDRICAL_SURFACE ( 'NONE', #48, 6.249999999999992000 ) ;
#96 = PLANE ( 'NONE',  #56 ) ;
#97 =( GEOMETRIC_REPRESENTATION_CONTEXT ( 3 ) GLOBAL_UNCERTAINTY_ASSIGNED_CONTEXT ( ( #60 ) ) GLOBAL_UNIT_ASSIGNED_CONTEXT ( ( #21, #135, #42 ) ) REPRESENTATION_CONTEXT ( 'NONE', 'WORKASPACE' ) );
#98 = CARTESIAN_POINT ( 'NONE',  ( 130.0785702462804900, 38.64658967450770900, 0.0000000000000000000 ) ) ;
#99 = COLOUR_RGB ( '',1.000000000000000000, 1.000000000000000000, 1.000000000000000000 ) ;
#100 = STYLED_ITEM ( 'NONE', ( #78 ), #15 ) ;
#101 = EDGE_LOOP ( 'NONE', ( #109, #6, #46, #86 ) ) ;
#102 = VERTEX_POINT ( 'NONE', #74 ) ;
#103 = PRODUCT_DEFINITION_SHAPE ( 'NONE', 'NONE',  #79 ) ;
#104 = DIRECTION ( 'NONE',  ( -1.000000000000000000, -0.0000000000000000000, -0.0000000000000000000 ) ) ;
#105 = CARTESIAN_POINT ( 'NONE',  ( 132.0785702462804900, 38.64658967450770900, 6.249999999999992000 ) ) ;
#106 = ORIENTED_EDGE ( 'NONE', *, *, #132, .T. ) ;
#107 = CIRCLE ( 'NONE', #88, 6.249999999999992000 ) ;
#108 = CARTESIAN_POINT ( 'NONE',  ( 127.0004009963080200, 38.64658967450770900, 0.0000000000000000000 ) ) ;
#109 = ORIENTED_EDGE ( 'NONE', *, *, #68, .T. ) ;
#110 = PRESENTATION_LAYER_ASSIGNMENT (  '', '', ( #100 ) ) ;
#111 = LINE ( 'NONE', #89, #49 ) ;
#112 = AXIS2_PLACEMENT_3D ( 'NONE', #75, #11, #126 ) ;
#113 = CARTESIAN_POINT ( 'NONE',  ( 130.0785702462804900, 38.64658967450770900, 0.0000000000000000000 ) ) ;
#114 =( LENGTH_UNIT ( ) NAMED_UNIT ( * ) SI_UNIT ( .MILLI., .METRE. ) );
#115 = CARTESIAN_POINT ( 'NONE',  ( 132.0785702462804900, 38.64658967450770900, 0.0000000000000000000 ) ) ;
#116 = PRODUCT_CONTEXT ( 'NONE', #136, 'mechanical' ) ;
#117 = UNCERTAINTY_MEASURE_WITH_UNIT (LENGTH_MEASURE( 1.000000000000000100E-005 ), #114, 'distance_accuracy_value', 'NONE');
#118 = PRESENTATION_STYLE_ASSIGNMENT (( #93 ) ) ;
#119 = ORIENTED_EDGE ( 'NONE', *, *, #44, .T. ) ;
#120 = ADVANCED_FACE ( 'NONE', ( #24 ), #47, .T. ) ;
#121 = EDGE_CURVE ( 'NONE', #102, #87, #83, .T. ) ;
#122 = VERTEX_POINT ( 'NONE', #37 ) ;
#123 = FILL_AREA_STYLE_COLOUR ( '', #85 ) ;
#124 = SURFACE_SIDE_STYLE ('',( #20 ) ) ;
#125 =( GEOMETRIC_REPRESENTATION_CONTEXT ( 3 ) GLOBAL_UNCERTAINTY_ASSIGNED_CONTEXT ( ( #4 ) ) GLOBAL_UNIT_ASSIGNED_CONTEXT ( ( #138, #94, #65 ) ) REPRESENTATION_CONTEXT ( 'NONE', 'WORKASPACE' ) );
#126 = DIRECTION ( 'NONE',  ( 1.000000000000000000, 0.0000000000000000000, 0.0000000000000000000 ) ) ;
#127 = CARTESIAN_POINT ( 'NONE',  ( 130.0785702462804900, 38.64658967450770200, 0.0000000000000000000 ) ) ;
#128 = SURFACE_STYLE_USAGE ( .BOTH. , #124 ) ;
#129 = ORIENTED_EDGE ( 'NONE', *, *, #132, .F. ) ;
#130 = PRODUCT_DEFINITION_FORMATION_WITH_SPECIFIED_SOURCE ( 'ÈÎºÎ', '', #92, .NOT_KNOWN. ) ;
#131 = ORIENTED_EDGE ( 'NONE', *, *, #2, .T. ) ;
#132 = EDGE_CURVE ( 'NONE', #102, #61, #107, .T. ) ;
#133 = FILL_AREA_STYLE ('',( #123 ) ) ;
#134 = FACE_OUTER_BOUND ( 'NONE', #70, .T. ) ;
#135 =( NAMED_UNIT ( * ) PLANE_ANGLE_UNIT ( ) SI_UNIT ( $, .RADIAN. ) );
#136 = APPLICATION_CONTEXT ( 'automotive_design' ) ;
#137 = PRODUCT_RELATED_PRODUCT_CATEGORY ( 'part', '', ( #92 ) ) ;
#138 =( LENGTH_UNIT ( ) NAMED_UNIT ( * ) SI_UNIT ( .MILLI., .METRE. ) );
#139 = DIRECTION ( 'NONE',  ( 0.0000000000000000000, 0.0000000000000000000, 1.000000000000000000 ) ) ;
#140 = CIRCLE ( 'NONE', #32, 6.249999999999992000 ) ;
ENDSEC;
END-ISO-10303-21;
