ISO-10303-21;
HEADER;
FILE_DESCRIPTION (( 'STEP AP214' ),
    '1' );
FILE_NAME ('260005.STEP',
    '2019-07-15T03:11:41',
    ( '' ),
    ( '' ),
    'SwSTEP 2.0',
    'SolidWorks 2016',
    '' );
FILE_SCHEMA (( 'AUTOMOTIVE_DESIGN' ));
ENDSEC;

DATA;
#1 = CLOSED_SHELL ( 'NONE', ( #51, #29, #107, #62 ) ) ;
#2 = MECHANICAL_DESIGN_GEOMETRIC_PRESENTATION_REPRESENTATION (  '', ( #117 ), #94 ) ;
#3 = DIRECTION ( 'NONE',  ( 1.000000000000000000, 0.0000000000000000000, 0.0000000000000000000 ) ) ;
#4 = SURFACE_SIDE_STYLE ('',( #47 ) ) ;
#5 = AXIS2_PLACEMENT_3D ( 'NONE', #65, #122, #33 ) ;
#6 = FACE_OUTER_BOUND ( 'NONE', #83, .T. ) ;
#7 = PRESENTATION_LAYER_ASSIGNMENT (  '', '', ( #117 ) ) ;
#8 = AXIS2_PLACEMENT_3D ( 'NONE', #78, #45, #132 ) ;
#9 = CIRCLE ( 'NONE', #17, 7.500000000000000000 ) ;
#10 = VERTEX_POINT ( 'NONE', #109 ) ;
#11 = SHAPE_DEFINITION_REPRESENTATION ( #135, #31 ) ;
#12 = CARTESIAN_POINT ( 'NONE',  ( 127.0004009963080200, 38.64658967450770900, 0.0000000000000000000 ) ) ;
#13 = APPLICATION_PROTOCOL_DEFINITION ( 'draft international standard', 'automotive_design', 1998, #49 ) ;
#14 = ORIENTED_EDGE ( 'NONE', *, *, #128, .F. ) ;
#15 = FILL_AREA_STYLE ('',( #24 ) ) ;
#16 = AXIS2_PLACEMENT_3D ( 'NONE', #12, #82, #125 ) ;
#17 = AXIS2_PLACEMENT_3D ( 'NONE', #121, #59, #68 ) ;
#18 = MANIFOLD_SOLID_BREP ( 'Ðý×ª1', #1 ) ;
#19 = EDGE_LOOP ( 'NONE', ( #27, #130, #60, #136 ) ) ;
#20 = CARTESIAN_POINT ( 'NONE',  ( 130.0639985298940900, 38.64658967450770900, 0.0000000000000000000 ) ) ;
#21 = DIRECTION ( 'NONE',  ( 0.0000000000000000000, 0.0000000000000000000, -1.000000000000000000 ) ) ;
#22 = CIRCLE ( 'NONE', #133, 7.500000000000000000 ) ;
#23 = CARTESIAN_POINT ( 'NONE',  ( 132.0639985298940900, 38.64658967450770900, 7.500000000000000000 ) ) ;
#24 = FILL_AREA_STYLE_COLOUR ( '', #76 ) ;
#25 = DIRECTION ( 'NONE',  ( -1.000000000000000000, -0.0000000000000000000, -0.0000000000000000000 ) ) ;
#26 =( NAMED_UNIT ( * ) SI_UNIT ( $, .STERADIAN. ) SOLID_ANGLE_UNIT ( ) );
#27 = ORIENTED_EDGE ( 'NONE', *, *, #110, .F. ) ;
#28 = DIRECTION ( 'NONE',  ( 0.0000000000000000000, 0.0000000000000000000, 1.000000000000000000 ) ) ;
#29 = ADVANCED_FACE ( 'NONE', ( #111 ), #81, .F. ) ;
#30 = ORIENTED_EDGE ( 'NONE', *, *, #134, .T. ) ;
#31 = ADVANCED_BREP_SHAPE_REPRESENTATION ( '260005', ( #18, #42 ), #98 ) ;
#32 = AXIS2_PLACEMENT_3D ( 'NONE', #46, #67, #69 ) ;
#33 = DIRECTION ( 'NONE',  ( 0.0000000000000000000, 0.0000000000000000000, 1.000000000000000000 ) ) ;
#34 = VECTOR ( 'NONE', #139, 1000.000000000000000 ) ;
#35 = UNCERTAINTY_MEASURE_WITH_UNIT (LENGTH_MEASURE( 1.000000000000000100E-005 ), #102, 'distance_accuracy_value', 'NONE');
#36 = EDGE_CURVE ( 'NONE', #10, #52, #66, .T. ) ;
#37 = PLANE ( 'NONE',  #8 ) ;
#38 = CARTESIAN_POINT ( 'NONE',  ( 132.0639985298940900, 38.64658967450770900, 0.0000000000000000000 ) ) ;
#39 = EDGE_LOOP ( 'NONE', ( #14, #88 ) ) ;
#40 = APPLICATION_CONTEXT ( 'automotive_design' ) ;
#41 = CARTESIAN_POINT ( 'NONE',  ( 0.0000000000000000000, 0.0000000000000000000, 0.0000000000000000000 ) ) ;
#42 = AXIS2_PLACEMENT_3D ( 'NONE', #41, #113, #3 ) ;
#43 = LINE ( 'NONE', #99, #34 ) ;
#44 = EDGE_CURVE ( 'NONE', #96, #52, #43, .T. ) ;
#45 = DIRECTION ( 'NONE',  ( -1.000000000000000000, 0.0000000000000000000, -0.0000000000000000000 ) ) ;
#46 = CARTESIAN_POINT ( 'NONE',  ( 127.0004009963080200, 38.64658967450770900, 0.0000000000000000000 ) ) ;
#47 = SURFACE_STYLE_FILL_AREA ( #15 ) ;
#48 = SURFACE_STYLE_USAGE ( .BOTH. , #4 ) ;
#49 = APPLICATION_CONTEXT ( 'automotive_design' ) ;
#50 = DIRECTION ( 'NONE',  ( 0.0000000000000000000, 0.0000000000000000000, 1.000000000000000000 ) ) ;
#51 = ADVANCED_FACE ( 'NONE', ( #6 ), #95, .T. ) ;
#52 = VERTEX_POINT ( 'NONE', #118 ) ;
#53 = AXIS2_PLACEMENT_3D ( 'NONE', #93, #92, #28 ) ;
#54 = FACE_OUTER_BOUND ( 'NONE', #19, .T. ) ;
#55 = UNCERTAINTY_MEASURE_WITH_UNIT (LENGTH_MEASURE( 1.000000000000000100E-005 ), #106, 'distance_accuracy_value', 'NONE');
#56 = COLOUR_RGB ( '',1.000000000000000000, 1.000000000000000000, 1.000000000000000000 ) ;
#57 = EDGE_CURVE ( 'NONE', #115, #96, #9, .T. ) ;
#58 = FILL_AREA_STYLE ('',( #104 ) ) ;
#59 = DIRECTION ( 'NONE',  ( -1.000000000000000000, -0.0000000000000000000, -0.0000000000000000000 ) ) ;
#60 = ORIENTED_EDGE ( 'NONE', *, *, #44, .T. ) ;
#61 = CARTESIAN_POINT ( 'NONE',  ( 132.0639985298940900, 38.64658967450770900, -7.500000000000000000 ) ) ;
#62 = ADVANCED_FACE ( 'NONE', ( #86 ), #37, .F. ) ;
#63 = AXIS2_PLACEMENT_3D ( 'NONE', #20, #131, #21 ) ;
#64 = ORIENTED_EDGE ( 'NONE', *, *, #36, .T. ) ;
#65 = CARTESIAN_POINT ( 'NONE',  ( 130.0639985298940900, 38.64658967450770900, 0.0000000000000000000 ) ) ;
#66 = CIRCLE ( 'NONE', #5, 7.500000000000000000 ) ;
#67 = DIRECTION ( 'NONE',  ( -1.000000000000000000, -0.0000000000000000000, -0.0000000000000000000 ) ) ;
#68 = DIRECTION ( 'NONE',  ( 0.0000000000000000000, 0.0000000000000000000, 1.000000000000000000 ) ) ;
#69 = DIRECTION ( 'NONE',  ( 0.0000000000000000000, 0.0000000000000000000, 1.000000000000000000 ) ) ;
#70 =( LENGTH_UNIT ( ) NAMED_UNIT ( * ) SI_UNIT ( .MILLI., .METRE. ) );
#71 = STYLED_ITEM ( 'NONE', ( #129 ), #31 ) ;
#72 = DIRECTION ( 'NONE',  ( -1.000000000000000000, -0.0000000000000000000, -0.0000000000000000000 ) ) ;
#73 = CYLINDRICAL_SURFACE ( 'NONE', #16, 7.500000000000000000 ) ;
#74 = LINE ( 'NONE', #105, #120 ) ;
#75 = PRODUCT_RELATED_PRODUCT_CATEGORY ( 'part', '', ( #123 ) ) ;
#76 = COLOUR_RGB ( '',1.000000000000000000, 1.000000000000000000, 1.000000000000000000 ) ;
#77 = PRESENTATION_LAYER_ASSIGNMENT (  '', '', ( #71 ) ) ;
#78 = CARTESIAN_POINT ( 'NONE',  ( 132.0639985298940900, 46.14658967450770900, 0.0000000000000000000 ) ) ;
#79 = SURFACE_STYLE_USAGE ( .BOTH. , #103 ) ;
#80 = CIRCLE ( 'NONE', #53, 7.500000000000000000 ) ;
#81 = PLANE ( 'NONE',  #63 ) ;
#82 = DIRECTION ( 'NONE',  ( -1.000000000000000000, -0.0000000000000000000, -0.0000000000000000000 ) ) ;
#83 = EDGE_LOOP ( 'NONE', ( #116, #140, #91, #101 ) ) ;
#84 =( NAMED_UNIT ( * ) SI_UNIT ( $, .STERADIAN. ) SOLID_ANGLE_UNIT ( ) );
#85 = PRODUCT_DEFINITION_CONTEXT ( 'detailed design', #49, 'design' ) ;
#86 = FACE_OUTER_BOUND ( 'NONE', #39, .T. ) ;
#87 =( GEOMETRIC_REPRESENTATION_CONTEXT ( 3 ) GLOBAL_UNCERTAINTY_ASSIGNED_CONTEXT ( ( #55 ) ) GLOBAL_UNIT_ASSIGNED_CONTEXT ( ( #106, #112, #26 ) ) REPRESENTATION_CONTEXT ( 'NONE', 'WORKASPACE' ) );
#88 = ORIENTED_EDGE ( 'NONE', *, *, #57, .F. ) ;
#89 = PRESENTATION_STYLE_ASSIGNMENT (( #79 ) ) ;
#90 =( NAMED_UNIT ( * ) PLANE_ANGLE_UNIT ( ) SI_UNIT ( $, .RADIAN. ) );
#91 = ORIENTED_EDGE ( 'NONE', *, *, #134, .F. ) ;
#92 = DIRECTION ( 'NONE',  ( -1.000000000000000000, -0.0000000000000000000, -0.0000000000000000000 ) ) ;
#93 = CARTESIAN_POINT ( 'NONE',  ( 130.0639985298940900, 38.64658967450770900, 0.0000000000000000000 ) ) ;
#94 =( GEOMETRIC_REPRESENTATION_CONTEXT ( 3 ) GLOBAL_UNCERTAINTY_ASSIGNED_CONTEXT ( ( #35 ) ) GLOBAL_UNIT_ASSIGNED_CONTEXT ( ( #102, #90, #119 ) ) REPRESENTATION_CONTEXT ( 'NONE', 'WORKASPACE' ) );
#95 = CYLINDRICAL_SURFACE ( 'NONE', #32, 7.500000000000000000 ) ;
#96 = VERTEX_POINT ( 'NONE', #23 ) ;
#97 = EDGE_LOOP ( 'NONE', ( #30, #64 ) ) ;
#98 =( GEOMETRIC_REPRESENTATION_CONTEXT ( 3 ) GLOBAL_UNCERTAINTY_ASSIGNED_CONTEXT ( ( #138 ) ) GLOBAL_UNIT_ASSIGNED_CONTEXT ( ( #70, #114, #84 ) ) REPRESENTATION_CONTEXT ( 'NONE', 'WORKASPACE' ) );
#99 = CARTESIAN_POINT ( 'NONE',  ( 127.0004009963080200, 38.64658967450770900, 7.500000000000000000 ) ) ;
#100 = PRODUCT_DEFINITION ( 'Î´Öª', '', #108, #85 ) ;
#101 = ORIENTED_EDGE ( 'NONE', *, *, #44, .F. ) ;
#102 =( LENGTH_UNIT ( ) NAMED_UNIT ( * ) SI_UNIT ( .MILLI., .METRE. ) );
#103 = SURFACE_SIDE_STYLE ('',( #124 ) ) ;
#104 = FILL_AREA_STYLE_COLOUR ( '', #56 ) ;
#105 = CARTESIAN_POINT ( 'NONE',  ( 127.0004009963080200, 38.64658967450770900, -7.500000000000000000 ) ) ;
#106 =( LENGTH_UNIT ( ) NAMED_UNIT ( * ) SI_UNIT ( .MILLI., .METRE. ) );
#107 = ADVANCED_FACE ( 'NONE', ( #54 ), #73, .T. ) ;
#108 = PRODUCT_DEFINITION_FORMATION_WITH_SPECIFIED_SOURCE ( 'ÈÎºÎ', '', #123, .NOT_KNOWN. ) ;
#109 = CARTESIAN_POINT ( 'NONE',  ( 130.0639985298940900, 38.64658967450770900, -7.500000000000000000 ) ) ;
#110 = EDGE_CURVE ( 'NONE', #115, #10, #74, .T. ) ;
#111 = FACE_OUTER_BOUND ( 'NONE', #97, .T. ) ;
#112 =( NAMED_UNIT ( * ) PLANE_ANGLE_UNIT ( ) SI_UNIT ( $, .RADIAN. ) );
#113 = DIRECTION ( 'NONE',  ( 0.0000000000000000000, 0.0000000000000000000, 1.000000000000000000 ) ) ;
#114 =( NAMED_UNIT ( * ) PLANE_ANGLE_UNIT ( ) SI_UNIT ( $, .RADIAN. ) );
#115 = VERTEX_POINT ( 'NONE', #61 ) ;
#116 = ORIENTED_EDGE ( 'NONE', *, *, #128, .T. ) ;
#117 = STYLED_ITEM ( 'NONE', ( #89 ), #18 ) ;
#118 = CARTESIAN_POINT ( 'NONE',  ( 130.0639985298940900, 38.64658967450770900, 7.500000000000000000 ) ) ;
#119 =( NAMED_UNIT ( * ) SI_UNIT ( $, .STERADIAN. ) SOLID_ANGLE_UNIT ( ) );
#120 = VECTOR ( 'NONE', #25, 1000.000000000000000 ) ;
#121 = CARTESIAN_POINT ( 'NONE',  ( 132.0639985298940900, 38.64658967450770900, 0.0000000000000000000 ) ) ;
#122 = DIRECTION ( 'NONE',  ( -1.000000000000000000, -0.0000000000000000000, -0.0000000000000000000 ) ) ;
#123 = PRODUCT ( '260005', '260005', '', ( #127 ) ) ;
#124 = SURFACE_STYLE_FILL_AREA ( #58 ) ;
#125 = DIRECTION ( 'NONE',  ( 0.0000000000000000000, 0.0000000000000000000, 1.000000000000000000 ) ) ;
#126 = APPLICATION_PROTOCOL_DEFINITION ( 'draft international standard', 'automotive_design', 1998, #40 ) ;
#127 = PRODUCT_CONTEXT ( 'NONE', #40, 'mechanical' ) ;
#128 = EDGE_CURVE ( 'NONE', #96, #115, #22, .T. ) ;
#129 = PRESENTATION_STYLE_ASSIGNMENT (( #48 ) ) ;
#130 = ORIENTED_EDGE ( 'NONE', *, *, #57, .T. ) ;
#131 = DIRECTION ( 'NONE',  ( 1.000000000000000000, 0.0000000000000000000, 0.0000000000000000000 ) ) ;
#132 = DIRECTION ( 'NONE',  ( -0.0000000000000000000, 0.0000000000000000000, 1.000000000000000000 ) ) ;
#133 = AXIS2_PLACEMENT_3D ( 'NONE', #38, #72, #50 ) ;
#134 = EDGE_CURVE ( 'NONE', #52, #10, #80, .T. ) ;
#135 = PRODUCT_DEFINITION_SHAPE ( 'NONE', 'NONE',  #100 ) ;
#136 = ORIENTED_EDGE ( 'NONE', *, *, #36, .F. ) ;
#137 = MECHANICAL_DESIGN_GEOMETRIC_PRESENTATION_REPRESENTATION (  '', ( #71 ), #87 ) ;
#138 = UNCERTAINTY_MEASURE_WITH_UNIT (LENGTH_MEASURE( 1.000000000000000100E-005 ), #70, 'distance_accuracy_value', 'NONE');
#139 = DIRECTION ( 'NONE',  ( -1.000000000000000000, -0.0000000000000000000, -0.0000000000000000000 ) ) ;
#140 = ORIENTED_EDGE ( 'NONE', *, *, #110, .T. ) ;
ENDSEC;
END-ISO-10303-21;
