ISO-10303-21;
HEADER;
FILE_DESCRIPTION (( 'STEP AP214' ),
    '1' );
FILE_NAME ('260076.STEP',
    '2019-07-16T05:27:38',
    ( '' ),
    ( '' ),
    'SwSTEP 2.0',
    'SolidWorks 2016',
    '' );
FILE_SCHEMA (( 'AUTOMOTIVE_DESIGN' ));
ENDSEC;

DATA;
#1 = DIRECTION ( 'NONE',  ( -0.0000000000000000000, 0.0000000000000000000, -1.000000000000000000 ) ) ;
#2 = AXIS2_PLACEMENT_3D ( 'NONE', #94, #68, #115 ) ;
#3 =( NAMED_UNIT ( * ) SI_UNIT ( $, .STERADIAN. ) SOLID_ANGLE_UNIT ( ) );
#4 = SURFACE_SIDE_STYLE ('',( #82 ) ) ;
#5 =( LENGTH_UNIT ( ) NAMED_UNIT ( * ) SI_UNIT ( .MILLI., .METRE. ) );
#6 = AXIS2_PLACEMENT_3D ( 'NONE', #9, #24, #133 ) ;
#7 = CIRCLE ( 'NONE', #54, 24.99999999999999300 ) ;
#8 = ADVANCED_FACE ( 'NONE', ( #12 ), #123, .F. ) ;
#9 = CARTESIAN_POINT ( 'NONE',  ( 530.5760290034243100, 154.8929809578067700, 0.0000000000000000000 ) ) ;
#10 = CARTESIAN_POINT ( 'NONE',  ( 530.5760290034243100, 154.8929809578067700, 0.0000000000000000000 ) ) ;
#11 =( NAMED_UNIT ( * ) SI_UNIT ( $, .STERADIAN. ) SOLID_ANGLE_UNIT ( ) );
#12 = FACE_OUTER_BOUND ( 'NONE', #19, .T. ) ;
#13 = CARTESIAN_POINT ( 'NONE',  ( 530.5760290034243100, 154.8929809578067700, 24.99999999999999300 ) ) ;
#14 = DIRECTION ( 'NONE',  ( 1.000000000000000000, -0.0000000000000000000, -0.0000000000000000000 ) ) ;
#15 = EDGE_CURVE ( 'NONE', #80, #139, #32, .T. ) ;
#16 =( NAMED_UNIT ( * ) PLANE_ANGLE_UNIT ( ) SI_UNIT ( $, .RADIAN. ) );
#17 = DIRECTION ( 'NONE',  ( 1.000000000000000000, -0.0000000000000000000, -0.0000000000000000000 ) ) ;
#18 = MECHANICAL_DESIGN_GEOMETRIC_PRESENTATION_REPRESENTATION (  '', ( #78 ), #55 ) ;
#19 = EDGE_LOOP ( 'NONE', ( #63, #88 ) ) ;
#20 = EDGE_CURVE ( 'NONE', #71, #80, #79, .T. ) ;
#21 = ADVANCED_BREP_SHAPE_REPRESENTATION ( '260076', ( #105, #76 ), #108 ) ;
#22 = ORIENTED_EDGE ( 'NONE', *, *, #20, .T. ) ;
#23 = CARTESIAN_POINT ( 'NONE',  ( 530.5760290034243100, 154.8929809578067700, -24.99999999999999300 ) ) ;
#24 = DIRECTION ( 'NONE',  ( 1.000000000000000000, -0.0000000000000000000, -0.0000000000000000000 ) ) ;
#25 = LINE ( 'NONE', #13, #65 ) ;
#26 = DIRECTION ( 'NONE',  ( 0.0000000000000000000, 0.0000000000000000000, -1.000000000000000000 ) ) ;
#27 = DIRECTION ( 'NONE',  ( 1.000000000000000000, -0.0000000000000000000, -0.0000000000000000000 ) ) ;
#28 = EDGE_LOOP ( 'NONE', ( #97, #109, #58, #104 ) ) ;
#29 = CARTESIAN_POINT ( 'NONE',  ( 530.5760290034243100, 154.8929809578067700, 0.0000000000000000000 ) ) ;
#30 = PRODUCT_RELATED_PRODUCT_CATEGORY ( 'part', '', ( #57 ) ) ;
#31 = CARTESIAN_POINT ( 'NONE',  ( 0.0000000000000000000, 0.0000000000000000000, 0.0000000000000000000 ) ) ;
#32 = CIRCLE ( 'NONE', #6, 24.99999999999999300 ) ;
#33 = AXIS2_PLACEMENT_3D ( 'NONE', #81, #95, #1 ) ;
#34 = ADVANCED_FACE ( 'NONE', ( #136 ), #69, .F. ) ;
#35 = STYLED_ITEM ( 'NONE', ( #125 ), #105 ) ;
#36 = MECHANICAL_DESIGN_GEOMETRIC_PRESENTATION_REPRESENTATION (  '', ( #35 ), #43 ) ;
#37 = CARTESIAN_POINT ( 'NONE',  ( 530.5760290034243100, 154.8929809578067700, -24.99999999999999300 ) ) ;
#38 = DIRECTION ( 'NONE',  ( 0.0000000000000000000, 0.0000000000000000000, 1.000000000000000000 ) ) ;
#39 = PRESENTATION_LAYER_ASSIGNMENT (  '', '', ( #35 ) ) ;
#40 = DIRECTION ( 'NONE',  ( 0.0000000000000000000, 0.0000000000000000000, -1.000000000000000000 ) ) ;
#41 = DIRECTION ( 'NONE',  ( 1.000000000000000000, 0.0000000000000000000, 0.0000000000000000000 ) ) ;
#42 = EDGE_LOOP ( 'NONE', ( #128, #92 ) ) ;
#43 =( GEOMETRIC_REPRESENTATION_CONTEXT ( 3 ) GLOBAL_UNCERTAINTY_ASSIGNED_CONTEXT ( ( #89 ) ) GLOBAL_UNIT_ASSIGNED_CONTEXT ( ( #49, #70, #11 ) ) REPRESENTATION_CONTEXT ( 'NONE', 'WORKASPACE' ) );
#44 = COLOUR_RGB ( '',1.000000000000000000, 1.000000000000000000, 1.000000000000000000 ) ;
#45 = VERTEX_POINT ( 'NONE', #93 ) ;
#46 = CYLINDRICAL_SURFACE ( 'NONE', #67, 24.99999999999999300 ) ;
#47 = EDGE_LOOP ( 'NONE', ( #66, #119, #22, #50 ) ) ;
#48 = FILL_AREA_STYLE ('',( #114 ) ) ;
#49 =( LENGTH_UNIT ( ) NAMED_UNIT ( * ) SI_UNIT ( .MILLI., .METRE. ) );
#50 = ORIENTED_EDGE ( 'NONE', *, *, #126, .F. ) ;
#51 = CARTESIAN_POINT ( 'NONE',  ( 530.5760290034243100, 154.8929809578067700, 0.0000000000000000000 ) ) ;
#52 = UNCERTAINTY_MEASURE_WITH_UNIT (LENGTH_MEASURE( 1.000000000000000100E-005 ), #96, 'distance_accuracy_value', 'NONE');
#53 = APPLICATION_PROTOCOL_DEFINITION ( 'draft international standard', 'automotive_design', 1998, #75 ) ;
#54 = AXIS2_PLACEMENT_3D ( 'NONE', #72, #14, #40 ) ;
#55 =( GEOMETRIC_REPRESENTATION_CONTEXT ( 3 ) GLOBAL_UNCERTAINTY_ASSIGNED_CONTEXT ( ( #52 ) ) GLOBAL_UNIT_ASSIGNED_CONTEXT ( ( #96, #98, #101 ) ) REPRESENTATION_CONTEXT ( 'NONE', 'WORKASPACE' ) );
#56 = CIRCLE ( 'NONE', #111, 24.99999999999999300 ) ;
#57 = PRODUCT ( '260076', '260076', '', ( #86 ) ) ;
#58 = ORIENTED_EDGE ( 'NONE', *, *, #15, .F. ) ;
#59 = SURFACE_SIDE_STYLE ('',( #112 ) ) ;
#60 = PRESENTATION_LAYER_ASSIGNMENT (  '', '', ( #78 ) ) ;
#61 = DIRECTION ( 'NONE',  ( 0.0000000000000000000, 0.0000000000000000000, -1.000000000000000000 ) ) ;
#62 = UNCERTAINTY_MEASURE_WITH_UNIT (LENGTH_MEASURE( 1.000000000000000100E-005 ), #5, 'distance_accuracy_value', 'NONE');
#63 = ORIENTED_EDGE ( 'NONE', *, *, #131, .F. ) ;
#64 = AXIS2_PLACEMENT_3D ( 'NONE', #51, #121, #118 ) ;
#65 = VECTOR ( 'NONE', #17, 1000.000000000000000 ) ;
#66 = ORIENTED_EDGE ( 'NONE', *, *, #138, .F. ) ;
#67 = AXIS2_PLACEMENT_3D ( 'NONE', #29, #117, #135 ) ;
#68 = DIRECTION ( 'NONE',  ( -1.000000000000000000, 0.0000000000000000000, 0.0000000000000000000 ) ) ;
#69 = PLANE ( 'NONE',  #2 ) ;
#70 =( NAMED_UNIT ( * ) PLANE_ANGLE_UNIT ( ) SI_UNIT ( $, .RADIAN. ) );
#71 = VERTEX_POINT ( 'NONE', #116 ) ;
#72 = CARTESIAN_POINT ( 'NONE',  ( 520.5760290034244200, 154.8929809578067700, 0.0000000000000000000 ) ) ;
#73 = CLOSED_SHELL ( 'NONE', ( #77, #34, #129, #8 ) ) ;
#74 = SURFACE_STYLE_USAGE ( .BOTH. , #4 ) ;
#75 = APPLICATION_CONTEXT ( 'automotive_design' ) ;
#76 = AXIS2_PLACEMENT_3D ( 'NONE', #31, #38, #41 ) ;
#77 = ADVANCED_FACE ( 'NONE', ( #132 ), #83, .T. ) ;
#78 = STYLED_ITEM ( 'NONE', ( #91 ), #21 ) ;
#79 = LINE ( 'NONE', #23, #137 ) ;
#80 = VERTEX_POINT ( 'NONE', #37 ) ;
#81 = CARTESIAN_POINT ( 'NONE',  ( 520.5760290034244200, 129.8929809578067700, 0.0000000000000000000 ) ) ;
#82 = SURFACE_STYLE_FILL_AREA ( #127 ) ;
#83 = CYLINDRICAL_SURFACE ( 'NONE', #130, 24.99999999999999300 ) ;
#84 = FILL_AREA_STYLE_COLOUR ( '', #120 ) ;
#85 = EDGE_CURVE ( 'NONE', #45, #71, #56, .T. ) ;
#86 = PRODUCT_CONTEXT ( 'NONE', #102, 'mechanical' ) ;
#87 = CIRCLE ( 'NONE', #64, 24.99999999999999300 ) ;
#88 = ORIENTED_EDGE ( 'NONE', *, *, #85, .F. ) ;
#89 = UNCERTAINTY_MEASURE_WITH_UNIT (LENGTH_MEASURE( 1.000000000000000100E-005 ), #49, 'distance_accuracy_value', 'NONE');
#90 = PRODUCT_DEFINITION ( 'Î´Öª', '', #103, #99 ) ;
#91 = PRESENTATION_STYLE_ASSIGNMENT (( #74 ) ) ;
#92 = ORIENTED_EDGE ( 'NONE', *, *, #126, .T. ) ;
#93 = CARTESIAN_POINT ( 'NONE',  ( 520.5760290034244200, 154.8929809578067700, 24.99999999999999300 ) ) ;
#94 = CARTESIAN_POINT ( 'NONE',  ( 530.5760290034243100, 154.8929809578067700, 0.0000000000000000000 ) ) ;
#95 = DIRECTION ( 'NONE',  ( 1.000000000000000000, 0.0000000000000000000, -0.0000000000000000000 ) ) ;
#96 =( LENGTH_UNIT ( ) NAMED_UNIT ( * ) SI_UNIT ( .MILLI., .METRE. ) );
#97 = ORIENTED_EDGE ( 'NONE', *, *, #131, .T. ) ;
#98 =( NAMED_UNIT ( * ) PLANE_ANGLE_UNIT ( ) SI_UNIT ( $, .RADIAN. ) );
#99 = PRODUCT_DEFINITION_CONTEXT ( 'detailed design', #75, 'design' ) ;
#100 = APPLICATION_PROTOCOL_DEFINITION ( 'draft international standard', 'automotive_design', 1998, #102 ) ;
#101 =( NAMED_UNIT ( * ) SI_UNIT ( $, .STERADIAN. ) SOLID_ANGLE_UNIT ( ) );
#102 = APPLICATION_CONTEXT ( 'automotive_design' ) ;
#103 = PRODUCT_DEFINITION_FORMATION_WITH_SPECIFIED_SOURCE ( 'ÈÎºÎ', '', #57, .NOT_KNOWN. ) ;
#104 = ORIENTED_EDGE ( 'NONE', *, *, #20, .F. ) ;
#105 = MANIFOLD_SOLID_BREP ( 'Ðý×ª1', #73 ) ;
#106 = PRODUCT_DEFINITION_SHAPE ( 'NONE', 'NONE',  #90 ) ;
#107 = DIRECTION ( 'NONE',  ( 1.000000000000000000, -0.0000000000000000000, -0.0000000000000000000 ) ) ;
#108 =( GEOMETRIC_REPRESENTATION_CONTEXT ( 3 ) GLOBAL_UNCERTAINTY_ASSIGNED_CONTEXT ( ( #62 ) ) GLOBAL_UNIT_ASSIGNED_CONTEXT ( ( #5, #16, #3 ) ) REPRESENTATION_CONTEXT ( 'NONE', 'WORKASPACE' ) );
#109 = ORIENTED_EDGE ( 'NONE', *, *, #138, .T. ) ;
#110 = CARTESIAN_POINT ( 'NONE',  ( 530.5760290034243100, 154.8929809578067700, 24.99999999999999300 ) ) ;
#111 = AXIS2_PLACEMENT_3D ( 'NONE', #124, #134, #61 ) ;
#112 = SURFACE_STYLE_FILL_AREA ( #48 ) ;
#113 = SHAPE_DEFINITION_REPRESENTATION ( #106, #21 ) ;
#114 = FILL_AREA_STYLE_COLOUR ( '', #44 ) ;
#115 = DIRECTION ( 'NONE',  ( 0.0000000000000000000, 0.0000000000000000000, 1.000000000000000000 ) ) ;
#116 = CARTESIAN_POINT ( 'NONE',  ( 520.5760290034244200, 154.8929809578067700, -24.99999999999999300 ) ) ;
#117 = DIRECTION ( 'NONE',  ( 1.000000000000000000, -0.0000000000000000000, -0.0000000000000000000 ) ) ;
#118 = DIRECTION ( 'NONE',  ( 0.0000000000000000000, 0.0000000000000000000, -1.000000000000000000 ) ) ;
#119 = ORIENTED_EDGE ( 'NONE', *, *, #85, .T. ) ;
#120 = COLOUR_RGB ( '',1.000000000000000000, 1.000000000000000000, 1.000000000000000000 ) ;
#121 = DIRECTION ( 'NONE',  ( 1.000000000000000000, -0.0000000000000000000, -0.0000000000000000000 ) ) ;
#122 = SURFACE_STYLE_USAGE ( .BOTH. , #59 ) ;
#123 = PLANE ( 'NONE',  #33 ) ;
#124 = CARTESIAN_POINT ( 'NONE',  ( 520.5760290034244200, 154.8929809578067700, 0.0000000000000000000 ) ) ;
#125 = PRESENTATION_STYLE_ASSIGNMENT (( #122 ) ) ;
#126 = EDGE_CURVE ( 'NONE', #139, #80, #87, .T. ) ;
#127 = FILL_AREA_STYLE ('',( #84 ) ) ;
#128 = ORIENTED_EDGE ( 'NONE', *, *, #15, .T. ) ;
#129 = ADVANCED_FACE ( 'NONE', ( #140 ), #46, .T. ) ;
#130 = AXIS2_PLACEMENT_3D ( 'NONE', #10, #107, #26 ) ;
#131 = EDGE_CURVE ( 'NONE', #71, #45, #7, .T. ) ;
#132 = FACE_OUTER_BOUND ( 'NONE', #28, .T. ) ;
#133 = DIRECTION ( 'NONE',  ( 0.0000000000000000000, 0.0000000000000000000, -1.000000000000000000 ) ) ;
#134 = DIRECTION ( 'NONE',  ( 1.000000000000000000, -0.0000000000000000000, -0.0000000000000000000 ) ) ;
#135 = DIRECTION ( 'NONE',  ( 0.0000000000000000000, 0.0000000000000000000, -1.000000000000000000 ) ) ;
#136 = FACE_OUTER_BOUND ( 'NONE', #42, .T. ) ;
#137 = VECTOR ( 'NONE', #27, 1000.000000000000000 ) ;
#138 = EDGE_CURVE ( 'NONE', #45, #139, #25, .T. ) ;
#139 = VERTEX_POINT ( 'NONE', #110 ) ;
#140 = FACE_OUTER_BOUND ( 'NONE', #47, .T. ) ;
ENDSEC;
END-ISO-10303-21;
