ISO-10303-21;
HEADER;
FILE_DESCRIPTION (( 'STEP AP214' ),
    '1' );
FILE_NAME ('260073.STEP',
    '2019-07-16T03:34:27',
    ( '' ),
    ( '' ),
    'SwSTEP 2.0',
    'SolidWorks 2016',
    '' );
FILE_SCHEMA (( 'AUTOMOTIVE_DESIGN' ));
ENDSEC;

DATA;
#1 = DIRECTION ( 'NONE',  ( 1.000000000000000000, 0.0000000000000000000, 0.0000000000000000000 ) ) ;
#2 = EDGE_CURVE ( 'NONE', #10, #76, #192, .T. ) ;
#3 =( LENGTH_UNIT ( ) NAMED_UNIT ( * ) SI_UNIT ( .MILLI., .METRE. ) );
#4 = EDGE_LOOP ( 'NONE', ( #194, #54, #23, #13 ) ) ;
#5 = DIRECTION ( 'NONE',  ( 0.0000000000000000000, 0.0000000000000000000, 1.000000000000000000 ) ) ;
#6 = COLOUR_RGB ( '',1.000000000000000000, 1.000000000000000000, 1.000000000000000000 ) ;
#7 = ORIENTED_EDGE ( 'NONE', *, *, #2, .T. ) ;
#8 = EDGE_CURVE ( 'NONE', #121, #42, #110, .T. ) ;
#9 = PRODUCT_DEFINITION ( 'Î´Öª', '', #193, #73 ) ;
#10 = VERTEX_POINT ( 'NONE', #105 ) ;
#11 = VECTOR ( 'NONE', #107, 1000.000000000000000 ) ;
#12 = ORIENTED_EDGE ( 'NONE', *, *, #100, .T. ) ;
#13 = ORIENTED_EDGE ( 'NONE', *, *, #8, .T. ) ;
#14 = CARTESIAN_POINT ( 'NONE',  ( 208.3087717288429400, 77.29317934901541800, 0.0000000000000000000 ) ) ;
#15 = EDGE_CURVE ( 'NONE', #42, #10, #190, .T. ) ;
#16 = ORIENTED_EDGE ( 'NONE', *, *, #21, .T. ) ;
#17 = EDGE_LOOP ( 'NONE', ( #179, #133, #191, #89 ) ) ;
#18 = CARTESIAN_POINT ( 'NONE',  ( 0.0000000000000000000, 0.0000000000000000000, 0.0000000000000000000 ) ) ;
#19 = DIRECTION ( 'NONE',  ( -0.0000000000000000000, -0.0000000000000000000, -1.000000000000000000 ) ) ;
#20 = DIRECTION ( 'NONE',  ( 0.0000000000000000000, -0.0000000000000000000, -1.000000000000000000 ) ) ;
#21 = EDGE_CURVE ( 'NONE', #116, #42, #74, .T. ) ;
#22 = CARTESIAN_POINT ( 'NONE',  ( 233.3087717288429700, 89.79317934901541800, 6.000000000000000000 ) ) ;
#23 = ORIENTED_EDGE ( 'NONE', *, *, #43, .F. ) ;
#24 = DIRECTION ( 'NONE',  ( 0.0000000000000000000, 0.0000000000000000000, -1.000000000000000000 ) ) ;
#25 = FILL_AREA_STYLE_COLOUR ( '', #182 ) ;
#26 = VECTOR ( 'NONE', #52, 1000.000000000000000 ) ;
#27 = EDGE_CURVE ( 'NONE', #169, #10, #153, .T. ) ;
#28 = DIRECTION ( 'NONE',  ( 1.000000000000000000, 0.0000000000000000000, 0.0000000000000000000 ) ) ;
#29 = VECTOR ( 'NONE', #187, 1000.000000000000000 ) ;
#30 = FACE_OUTER_BOUND ( 'NONE', #181, .T. ) ;
#31 = ORIENTED_EDGE ( 'NONE', *, *, #171, .T. ) ;
#32 = DIRECTION ( 'NONE',  ( -0.0000000000000000000, -0.0000000000000000000, -1.000000000000000000 ) ) ;
#33 = ADVANCED_FACE ( 'NONE', ( #138 ), #157, .F. ) ;
#34 = CARTESIAN_POINT ( 'NONE',  ( 233.3087717288429700, 64.79317934901541800, 6.000000000000000000 ) ) ;
#35 = CARTESIAN_POINT ( 'NONE',  ( 233.3087717288429700, 89.79317934901541800, 6.000000000000000000 ) ) ;
#36 = LINE ( 'NONE', #168, #83 ) ;
#37 = CARTESIAN_POINT ( 'NONE',  ( 0.0000000000000000000, 0.0000000000000000000, 0.0000000000000000000 ) ) ;
#38 = APPLICATION_CONTEXT ( 'automotive_design' ) ;
#39 = CARTESIAN_POINT ( 'NONE',  ( 0.0000000000000000000, 0.0000000000000000000, 6.000000000000000000 ) ) ;
#40 = FILL_AREA_STYLE ('',( #25 ) ) ;
#41 = VECTOR ( 'NONE', #58, 1000.000000000000000 ) ;
#42 = VERTEX_POINT ( 'NONE', #123 ) ;
#43 = EDGE_CURVE ( 'NONE', #121, #169, #90, .T. ) ;
#44 = FACE_OUTER_BOUND ( 'NONE', #64, .T. ) ;
#45 = EDGE_CURVE ( 'NONE', #136, #116, #180, .T. ) ;
#46 = VECTOR ( 'NONE', #67, 1000.000000000000000 ) ;
#47 = DIRECTION ( 'NONE',  ( 0.0000000000000000000, 1.000000000000000000, -0.0000000000000000000 ) ) ;
#48 = ORIENTED_EDGE ( 'NONE', *, *, #43, .T. ) ;
#49 =( NAMED_UNIT ( * ) PLANE_ANGLE_UNIT ( ) SI_UNIT ( $, .RADIAN. ) );
#50 = EDGE_CURVE ( 'NONE', #76, #116, #56, .T. ) ;
#51 = DIRECTION ( 'NONE',  ( 0.0000000000000000000, 0.0000000000000000000, -1.000000000000000000 ) ) ;
#52 = DIRECTION ( 'NONE',  ( -0.0000000000000000000, 1.000000000000000000, -0.0000000000000000000 ) ) ;
#53 = APPLICATION_CONTEXT ( 'automotive_design' ) ;
#54 = ORIENTED_EDGE ( 'NONE', *, *, #27, .F. ) ;
#55 = APPLICATION_PROTOCOL_DEFINITION ( 'draft international standard', 'automotive_design', 1998, #38 ) ;
#56 = LINE ( 'NONE', #140, #46 ) ;
#57 =( GEOMETRIC_REPRESENTATION_CONTEXT ( 3 ) GLOBAL_UNCERTAINTY_ASSIGNED_CONTEXT ( ( #174 ) ) GLOBAL_UNIT_ASSIGNED_CONTEXT ( ( #84, #172, #118 ) ) REPRESENTATION_CONTEXT ( 'NONE', 'WORKASPACE' ) );
#58 = DIRECTION ( 'NONE',  ( -0.0000000000000000000, -0.0000000000000000000, -1.000000000000000000 ) ) ;
#59 = ORIENTED_EDGE ( 'NONE', *, *, #21, .F. ) ;
#60 = PRODUCT_CONTEXT ( 'NONE', #53, 'mechanical' ) ;
#61 = AXIS2_PLACEMENT_3D ( 'NONE', #170, #1, #51 ) ;
#62 = ADVANCED_FACE ( 'NONE', ( #30 ), #189, .T. ) ;
#63 = CLOSED_SHELL ( 'NONE', ( #114, #122, #75, #33, #195, #62 ) ) ;
#64 = EDGE_LOOP ( 'NONE', ( #7, #79, #104, #106 ) ) ;
#65 = AXIS2_PLACEMENT_3D ( 'NONE', #185, #132, #20 ) ;
#66 = CARTESIAN_POINT ( 'NONE',  ( 233.3087717288429700, 64.79317934901541800, 6.000000000000000000 ) ) ;
#67 = DIRECTION ( 'NONE',  ( -1.000000000000000000, -0.0000000000000000000, -0.0000000000000000000 ) ) ;
#68 = VECTOR ( 'NONE', #183, 1000.000000000000000 ) ;
#69 = CARTESIAN_POINT ( 'NONE',  ( 233.3087717288429700, 89.79317934901541800, 6.000000000000000000 ) ) ;
#70 = UNCERTAINTY_MEASURE_WITH_UNIT (LENGTH_MEASURE( 1.000000000000000100E-005 ), #3, 'distance_accuracy_value', 'NONE');
#71 = ORIENTED_EDGE ( 'NONE', *, *, #162, .F. ) ;
#72 = ORIENTED_EDGE ( 'NONE', *, *, #162, .T. ) ;
#73 = PRODUCT_DEFINITION_CONTEXT ( 'detailed design', #38, 'design' ) ;
#74 = LINE ( 'NONE', #14, #11 ) ;
#75 = ADVANCED_FACE ( 'NONE', ( #119 ), #131, .F. ) ;
#76 = VERTEX_POINT ( 'NONE', #91 ) ;
#77 = AXIS2_PLACEMENT_3D ( 'NONE', #39, #24, #98 ) ;
#78 = MECHANICAL_DESIGN_GEOMETRIC_PRESENTATION_REPRESENTATION (  '', ( #117 ), #86 ) ;
#79 = ORIENTED_EDGE ( 'NONE', *, *, #188, .F. ) ;
#80 = DIRECTION ( 'NONE',  ( -1.000000000000000000, 0.0000000000000000000, 0.0000000000000000000 ) ) ;
#81 = DIRECTION ( 'NONE',  ( 0.0000000000000000000, 0.0000000000000000000, 1.000000000000000000 ) ) ;
#82 = DIRECTION ( 'NONE',  ( -0.0000000000000000000, -1.000000000000000000, -0.0000000000000000000 ) ) ;
#83 = VECTOR ( 'NONE', #99, 1000.000000000000000 ) ;
#84 =( LENGTH_UNIT ( ) NAMED_UNIT ( * ) SI_UNIT ( .MILLI., .METRE. ) );
#85 = EDGE_LOOP ( 'NONE', ( #72, #48, #12, #31 ) ) ;
#86 =( GEOMETRIC_REPRESENTATION_CONTEXT ( 3 ) GLOBAL_UNCERTAINTY_ASSIGNED_CONTEXT ( ( #70 ) ) GLOBAL_UNIT_ASSIGNED_CONTEXT ( ( #3, #149, #115 ) ) REPRESENTATION_CONTEXT ( 'NONE', 'WORKASPACE' ) );
#87 = CARTESIAN_POINT ( 'NONE',  ( 208.3087717288429400, 64.79317934901541800, 6.000000000000000000 ) ) ;
#88 = CARTESIAN_POINT ( 'NONE',  ( 233.3087717288429700, 89.79317934901541800, 0.0000000000000000000 ) ) ;
#89 = ORIENTED_EDGE ( 'NONE', *, *, #188, .T. ) ;
#90 = LINE ( 'NONE', #109, #29 ) ;
#91 = CARTESIAN_POINT ( 'NONE',  ( 233.3087717288429700, 89.79317934901541800, 0.0000000000000000000 ) ) ;
#92 = SURFACE_SIDE_STYLE ('',( #126 ) ) ;
#93 = PRESENTATION_STYLE_ASSIGNMENT (( #96 ) ) ;
#94 = DIRECTION ( 'NONE',  ( 0.0000000000000000000, 0.0000000000000000000, -1.000000000000000000 ) ) ;
#95 = AXIS2_PLACEMENT_3D ( 'NONE', #37, #5, #28 ) ;
#96 = SURFACE_STYLE_USAGE ( .BOTH. , #150 ) ;
#97 = AXIS2_PLACEMENT_3D ( 'NONE', #18, #94, #202 ) ;
#98 = DIRECTION ( 'NONE',  ( -1.000000000000000000, 0.0000000000000000000, -0.0000000000000000000 ) ) ;
#99 = DIRECTION ( 'NONE',  ( -1.000000000000000000, -0.0000000000000000000, -0.0000000000000000000 ) ) ;
#100 = EDGE_CURVE ( 'NONE', #169, #112, #101, .T. ) ;
#101 = LINE ( 'NONE', #69, #26 ) ;
#102 = LINE ( 'NONE', #159, #139 ) ;
#103 = CARTESIAN_POINT ( 'NONE',  ( 233.3087717288429700, 64.79317934901541800, 6.000000000000000000 ) ) ;
#104 = ORIENTED_EDGE ( 'NONE', *, *, #100, .F. ) ;
#105 = CARTESIAN_POINT ( 'NONE',  ( 233.3087717288429700, 64.79317934901541800, 0.0000000000000000000 ) ) ;
#106 = ORIENTED_EDGE ( 'NONE', *, *, #27, .T. ) ;
#107 = DIRECTION ( 'NONE',  ( -0.0000000000000000000, -1.000000000000000000, -0.0000000000000000000 ) ) ;
#108 = ORIENTED_EDGE ( 'NONE', *, *, #2, .F. ) ;
#109 = CARTESIAN_POINT ( 'NONE',  ( 233.3087717288429700, 64.79317934901541800, 6.000000000000000000 ) ) ;
#110 = LINE ( 'NONE', #87, #166 ) ;
#111 = CARTESIAN_POINT ( 'NONE',  ( 208.3087717288429400, 64.79317934901541800, 6.000000000000000000 ) ) ;
#112 = VERTEX_POINT ( 'NONE', #160 ) ;
#113 = DIRECTION ( 'NONE',  ( 0.0000000000000000000, 0.0000000000000000000, 1.000000000000000000 ) ) ;
#114 = ADVANCED_FACE ( 'NONE', ( #163 ), #127, .F. ) ;
#115 =( NAMED_UNIT ( * ) SI_UNIT ( $, .STERADIAN. ) SOLID_ANGLE_UNIT ( ) );
#116 = VERTEX_POINT ( 'NONE', #130 ) ;
#117 = STYLED_ITEM ( 'NONE', ( #93 ), #201 ) ;
#118 =( NAMED_UNIT ( * ) SI_UNIT ( $, .STERADIAN. ) SOLID_ANGLE_UNIT ( ) );
#119 = FACE_OUTER_BOUND ( 'NONE', #17, .T. ) ;
#120 = PRODUCT_DEFINITION_SHAPE ( 'NONE', 'NONE',  #9 ) ;
#121 = VERTEX_POINT ( 'NONE', #111 ) ;
#122 = ADVANCED_FACE ( 'NONE', ( #44 ), #167, .F. ) ;
#123 = CARTESIAN_POINT ( 'NONE',  ( 208.3087717288429400, 64.79317934901541800, 0.0000000000000000000 ) ) ;
#124 = SHAPE_DEFINITION_REPRESENTATION ( #120, #201 ) ;
#125 = EDGE_LOOP ( 'NONE', ( #16, #155, #71, #178 ) ) ;
#126 = SURFACE_STYLE_FILL_AREA ( #146 ) ;
#127 = PLANE ( 'NONE',  #141 ) ;
#128 = PRESENTATION_LAYER_ASSIGNMENT (  '', '', ( #117 ) ) ;
#129 =( LENGTH_UNIT ( ) NAMED_UNIT ( * ) SI_UNIT ( .MILLI., .METRE. ) );
#130 = CARTESIAN_POINT ( 'NONE',  ( 208.3087717288429400, 89.79317934901541800, 0.0000000000000000000 ) ) ;
#131 = PLANE ( 'NONE',  #65 ) ;
#132 = DIRECTION ( 'NONE',  ( 0.0000000000000000000, -1.000000000000000000, 0.0000000000000000000 ) ) ;
#133 = ORIENTED_EDGE ( 'NONE', *, *, #45, .F. ) ;
#134 = AXIS2_PLACEMENT_3D ( 'NONE', #35, #80, #81 ) ;
#135 = MANIFOLD_SOLID_BREP ( 'Í¹Ì¨-À­Éì1', #63 ) ;
#136 = VERTEX_POINT ( 'NONE', #158 ) ;
#137 = APPLICATION_PROTOCOL_DEFINITION ( 'draft international standard', 'automotive_design', 1998, #53 ) ;
#138 = FACE_OUTER_BOUND ( 'NONE', #125, .T. ) ;
#139 = VECTOR ( 'NONE', #82, 1000.000000000000000 ) ;
#140 = CARTESIAN_POINT ( 'NONE',  ( 208.3087717288429400, 89.79317934901541800, 0.0000000000000000000 ) ) ;
#141 = AXIS2_PLACEMENT_3D ( 'NONE', #34, #47, #113 ) ;
#142 = VECTOR ( 'NONE', #165, 1000.000000000000000 ) ;
#143 = CARTESIAN_POINT ( 'NONE',  ( 208.3087717288429400, 89.79317934901541800, 6.000000000000000000 ) ) ;
#144 = LINE ( 'NONE', #22, #41 ) ;
#145 =( NAMED_UNIT ( * ) SI_UNIT ( $, .STERADIAN. ) SOLID_ANGLE_UNIT ( ) );
#146 = FILL_AREA_STYLE ('',( #186 ) ) ;
#147 = PLANE ( 'NONE',  #77 ) ;
#148 = SURFACE_STYLE_FILL_AREA ( #40 ) ;
#149 =( NAMED_UNIT ( * ) PLANE_ANGLE_UNIT ( ) SI_UNIT ( $, .RADIAN. ) );
#150 = SURFACE_SIDE_STYLE ('',( #148 ) ) ;
#151 = PRESENTATION_STYLE_ASSIGNMENT (( #200 ) ) ;
#152 = FACE_OUTER_BOUND ( 'NONE', #85, .T. ) ;
#153 = LINE ( 'NONE', #103, #176 ) ;
#154 = STYLED_ITEM ( 'NONE', ( #151 ), #135 ) ;
#155 = ORIENTED_EDGE ( 'NONE', *, *, #8, .F. ) ;
#156 = CARTESIAN_POINT ( 'NONE',  ( 233.3087717288429700, 64.79317934901541800, 0.0000000000000000000 ) ) ;
#157 = PLANE ( 'NONE',  #61 ) ;
#158 = CARTESIAN_POINT ( 'NONE',  ( 208.3087717288429400, 89.79317934901541800, 6.000000000000000000 ) ) ;
#159 = CARTESIAN_POINT ( 'NONE',  ( 208.3087717288429400, 64.79317934901541800, 6.000000000000000000 ) ) ;
#160 = CARTESIAN_POINT ( 'NONE',  ( 233.3087717288429700, 89.79317934901541800, 6.000000000000000000 ) ) ;
#161 = PRESENTATION_LAYER_ASSIGNMENT (  '', '', ( #154 ) ) ;
#162 = EDGE_CURVE ( 'NONE', #136, #121, #102, .T. ) ;
#163 = FACE_OUTER_BOUND ( 'NONE', #4, .T. ) ;
#164 = UNCERTAINTY_MEASURE_WITH_UNIT (LENGTH_MEASURE( 1.000000000000000100E-005 ), #129, 'distance_accuracy_value', 'NONE');
#165 = DIRECTION ( 'NONE',  ( -0.0000000000000000000, 1.000000000000000000, -0.0000000000000000000 ) ) ;
#166 = VECTOR ( 'NONE', #197, 1000.000000000000000 ) ;
#167 = PLANE ( 'NONE',  #134 ) ;
#168 = CARTESIAN_POINT ( 'NONE',  ( 208.3087717288429400, 89.79317934901541800, 6.000000000000000000 ) ) ;
#169 = VERTEX_POINT ( 'NONE', #66 ) ;
#170 = CARTESIAN_POINT ( 'NONE',  ( 208.3087717288429400, 77.29317934901541800, 6.000000000000000000 ) ) ;
#171 = EDGE_CURVE ( 'NONE', #112, #136, #36, .T. ) ;
#172 =( NAMED_UNIT ( * ) PLANE_ANGLE_UNIT ( ) SI_UNIT ( $, .RADIAN. ) );
#173 = PRODUCT_RELATED_PRODUCT_CATEGORY ( 'part', '', ( #175 ) ) ;
#174 = UNCERTAINTY_MEASURE_WITH_UNIT (LENGTH_MEASURE( 1.000000000000000100E-005 ), #84, 'distance_accuracy_value', 'NONE');
#175 = PRODUCT ( '260073', '260073', '', ( #60 ) ) ;
#176 = VECTOR ( 'NONE', #32, 1000.000000000000000 ) ;
#177 = MECHANICAL_DESIGN_GEOMETRIC_PRESENTATION_REPRESENTATION (  '', ( #154 ), #199 ) ;
#178 = ORIENTED_EDGE ( 'NONE', *, *, #45, .T. ) ;
#179 = ORIENTED_EDGE ( 'NONE', *, *, #50, .T. ) ;
#180 = LINE ( 'NONE', #143, #184 ) ;
#181 = EDGE_LOOP ( 'NONE', ( #198, #59, #196, #108 ) ) ;
#182 = COLOUR_RGB ( '',1.000000000000000000, 1.000000000000000000, 1.000000000000000000 ) ;
#183 = DIRECTION ( 'NONE',  ( 1.000000000000000000, -0.0000000000000000000, -0.0000000000000000000 ) ) ;
#184 = VECTOR ( 'NONE', #19, 1000.000000000000000 ) ;
#185 = CARTESIAN_POINT ( 'NONE',  ( 208.3087717288429400, 89.79317934901541800, 6.000000000000000000 ) ) ;
#186 = FILL_AREA_STYLE_COLOUR ( '', #6 ) ;
#187 = DIRECTION ( 'NONE',  ( 1.000000000000000000, -0.0000000000000000000, -0.0000000000000000000 ) ) ;
#188 = EDGE_CURVE ( 'NONE', #112, #76, #144, .T. ) ;
#189 = PLANE ( 'NONE',  #97 ) ;
#190 = LINE ( 'NONE', #156, #68 ) ;
#191 = ORIENTED_EDGE ( 'NONE', *, *, #171, .F. ) ;
#192 = LINE ( 'NONE', #88, #142 ) ;
#193 = PRODUCT_DEFINITION_FORMATION_WITH_SPECIFIED_SOURCE ( 'ÈÎºÎ', '', #175, .NOT_KNOWN. ) ;
#194 = ORIENTED_EDGE ( 'NONE', *, *, #15, .T. ) ;
#195 = ADVANCED_FACE ( 'NONE', ( #152 ), #147, .F. ) ;
#196 = ORIENTED_EDGE ( 'NONE', *, *, #50, .F. ) ;
#197 = DIRECTION ( 'NONE',  ( -0.0000000000000000000, -0.0000000000000000000, -1.000000000000000000 ) ) ;
#198 = ORIENTED_EDGE ( 'NONE', *, *, #15, .F. ) ;
#199 =( GEOMETRIC_REPRESENTATION_CONTEXT ( 3 ) GLOBAL_UNCERTAINTY_ASSIGNED_CONTEXT ( ( #164 ) ) GLOBAL_UNIT_ASSIGNED_CONTEXT ( ( #129, #49, #145 ) ) REPRESENTATION_CONTEXT ( 'NONE', 'WORKASPACE' ) );
#200 = SURFACE_STYLE_USAGE ( .BOTH. , #92 ) ;
#201 = ADVANCED_BREP_SHAPE_REPRESENTATION ( '260073', ( #135, #95 ), #57 ) ;
#202 = DIRECTION ( 'NONE',  ( -1.000000000000000000, 0.0000000000000000000, -0.0000000000000000000 ) ) ;
ENDSEC;
END-ISO-10303-21;
