ISO-10303-21;
HEADER;
FILE_DESCRIPTION (( 'STEP AP214' ),
    '1' );
FILE_NAME ('270000.STEP',
    '2019-07-22T01:28:21',
    ( '' ),
    ( '' ),
    'SwSTEP 2.0',
    'SolidWorks 2016',
    '' );
FILE_SCHEMA (( 'AUTOMOTIVE_DESIGN' ));
ENDSEC;

DATA;
#1 = CARTESIAN_POINT ( 'NONE',  ( 366.5624009856553600, 112.5921170640087900, 0.0000000000000000000 ) ) ;
#2 = PRODUCT_CONTEXT ( 'NONE', #182, 'mechanical' ) ;
#3 = COLOUR_RGB ( '',1.000000000000000000, 1.000000000000000000, 1.000000000000000000 ) ;
#4 = EDGE_CURVE ( 'NONE', #73, #111, #55, .T. ) ;
#5 = ORIENTED_EDGE ( 'NONE', *, *, #97, .T. ) ;
#6 = ORIENTED_EDGE ( 'NONE', *, *, #42, .T. ) ;
#7 = AXIS2_PLACEMENT_3D ( 'NONE', #61, #117, #59 ) ;
#8 = SURFACE_STYLE_FILL_AREA ( #17 ) ;
#9 = DIRECTION ( 'NONE',  ( 0.0000000000000000000, 0.0000000000000000000, 1.000000000000000000 ) ) ;
#10 = CIRCLE ( 'NONE', #81, 10.00000000000000900 ) ;
#11 =( GEOMETRIC_REPRESENTATION_CONTEXT ( 3 ) GLOBAL_UNCERTAINTY_ASSIGNED_CONTEXT ( ( #123 ) ) GLOBAL_UNIT_ASSIGNED_CONTEXT ( ( #21, #125, #64 ) ) REPRESENTATION_CONTEXT ( 'NONE', 'WORKASPACE' ) );
#12 = CARTESIAN_POINT ( 'NONE',  ( 363.5086447192782100, 112.5921170640087900, -6.250000000000005300 ) ) ;
#13 = CARTESIAN_POINT ( 'NONE',  ( 371.7561534876573400, 112.5921170640087900, 6.250000000000005300 ) ) ;
#14 = CYLINDRICAL_SURFACE ( 'NONE', #137, 6.250000000000005300 ) ;
#15 = SURFACE_STYLE_USAGE ( .BOTH. , #47 ) ;
#16 = DIRECTION ( 'NONE',  ( 0.0000000000000000000, 0.0000000000000000000, 1.000000000000000000 ) ) ;
#17 = FILL_AREA_STYLE ('',( #144 ) ) ;
#18 = ORIENTED_EDGE ( 'NONE', *, *, #39, .F. ) ;
#19 = MECHANICAL_DESIGN_GEOMETRIC_PRESENTATION_REPRESENTATION (  '', ( #136 ), #11 ) ;
#20 = PRESENTATION_LAYER_ASSIGNMENT (  '', '', ( #28 ) ) ;
#21 =( LENGTH_UNIT ( ) NAMED_UNIT ( * ) SI_UNIT ( .MILLI., .METRE. ) );
#22 = COLOUR_RGB ( '',1.000000000000000000, 1.000000000000000000, 1.000000000000000000 ) ;
#23 = ORIENTED_EDGE ( 'NONE', *, *, #57, .F. ) ;
#24 = ORIENTED_EDGE ( 'NONE', *, *, #48, .F. ) ;
#25 = AXIS2_PLACEMENT_3D ( 'NONE', #31, #60, #154 ) ;
#26 = CIRCLE ( 'NONE', #153, 10.00000000000000900 ) ;
#27 = DIRECTION ( 'NONE',  ( -1.000000000000000000, -0.0000000000000000000, -0.0000000000000000000 ) ) ;
#28 = STYLED_ITEM ( 'NONE', ( #168 ), #99 ) ;
#29 = DIRECTION ( 'NONE',  ( 0.0000000000000000000, 0.0000000000000000000, 1.000000000000000000 ) ) ;
#30 = MECHANICAL_DESIGN_GEOMETRIC_PRESENTATION_REPRESENTATION (  '', ( #28 ), #53 ) ;
#31 = CARTESIAN_POINT ( 'NONE',  ( 371.7561534876573400, 112.5921170640087900, 0.0000000000000000000 ) ) ;
#32 = ADVANCED_FACE ( 'NONE', ( #95 ), #14, .T. ) ;
#33 = CARTESIAN_POINT ( 'NONE',  ( 371.7561534876573400, 106.3421170640087900, 0.0000000000000000000 ) ) ;
#34 = DIRECTION ( 'NONE',  ( 0.0000000000000000000, -1.224646799147353200E-016, 1.000000000000000000 ) ) ;
#35 = CARTESIAN_POINT ( 'NONE',  ( 371.7561534876573400, 112.5921170640087900, -6.250000000000005300 ) ) ;
#36 = DIRECTION ( 'NONE',  ( 1.000000000000000000, 0.0000000000000000000, 0.0000000000000000000 ) ) ;
#37 = PRESENTATION_LAYER_ASSIGNMENT (  '', '', ( #136 ) ) ;
#38 = VERTEX_POINT ( 'NONE', #56 ) ;
#39 = EDGE_CURVE ( 'NONE', #140, #155, #149, .T. ) ;
#40 = PRODUCT_DEFINITION_CONTEXT ( 'detailed design', #66, 'design' ) ;
#41 = AXIS2_PLACEMENT_3D ( 'NONE', #186, #175, #45 ) ;
#42 = EDGE_CURVE ( 'NONE', #140, #73, #160, .T. ) ;
#43 = ORIENTED_EDGE ( 'NONE', *, *, #105, .T. ) ;
#44 = CIRCLE ( 'NONE', #71, 6.250000000000005300 ) ;
#45 = DIRECTION ( 'NONE',  ( 0.0000000000000000000, -1.000000000000000000, 0.0000000000000000000 ) ) ;
#46 = EDGE_LOOP ( 'NONE', ( #18, #6, #68, #162, #147 ) ) ;
#47 = SURFACE_SIDE_STYLE ('',( #8 ) ) ;
#48 = EDGE_CURVE ( 'NONE', #54, #155, #156, .T. ) ;
#49 =( NAMED_UNIT ( * ) PLANE_ANGLE_UNIT ( ) SI_UNIT ( $, .RADIAN. ) );
#50 = ORIENTED_EDGE ( 'NONE', *, *, #42, .F. ) ;
#51 = ORIENTED_EDGE ( 'NONE', *, *, #48, .T. ) ;
#52 = FILL_AREA_STYLE ('',( #134 ) ) ;
#53 =( GEOMETRIC_REPRESENTATION_CONTEXT ( 3 ) GLOBAL_UNCERTAINTY_ASSIGNED_CONTEXT ( ( #70 ) ) GLOBAL_UNIT_ASSIGNED_CONTEXT ( ( #169, #49, #78 ) ) REPRESENTATION_CONTEXT ( 'NONE', 'WORKASPACE' ) );
#54 = VERTEX_POINT ( 'NONE', #181 ) ;
#55 = CIRCLE ( 'NONE', #25, 6.250000000000005300 ) ;
#56 = CARTESIAN_POINT ( 'NONE',  ( 371.7561534876573400, 118.8421170640087900, 7.654042494670960600E-016 ) ) ;
#57 = EDGE_CURVE ( 'NONE', #38, #140, #88, .T. ) ;
#58 = VERTEX_POINT ( 'NONE', #164 ) ;
#59 = DIRECTION ( 'NONE',  ( 0.0000000000000000000, -1.000000000000000000, 0.0000000000000000000 ) ) ;
#60 = DIRECTION ( 'NONE',  ( -1.000000000000000000, -0.0000000000000000000, -0.0000000000000000000 ) ) ;
#61 = CARTESIAN_POINT ( 'NONE',  ( 379.5624009856553600, 112.5921170640087900, 0.0000000000000000000 ) ) ;
#62 = DIRECTION ( 'NONE',  ( -1.000000000000000000, -0.0000000000000000000, -0.0000000000000000000 ) ) ;
#63 = DIRECTION ( 'NONE',  ( 1.000000000000000000, 0.0000000000000000000, 0.0000000000000000000 ) ) ;
#64 =( NAMED_UNIT ( * ) SI_UNIT ( $, .STERADIAN. ) SOLID_ANGLE_UNIT ( ) );
#65 = ORIENTED_EDGE ( 'NONE', *, *, #57, .T. ) ;
#66 = APPLICATION_CONTEXT ( 'automotive_design' ) ;
#67 = SURFACE_STYLE_FILL_AREA ( #52 ) ;
#68 = ORIENTED_EDGE ( 'NONE', *, *, #4, .T. ) ;
#69 = EDGE_CURVE ( 'NONE', #111, #54, #159, .T. ) ;
#70 = UNCERTAINTY_MEASURE_WITH_UNIT (LENGTH_MEASURE( 1.000000000000000100E-005 ), #169, 'distance_accuracy_value', 'NONE');
#71 = AXIS2_PLACEMENT_3D ( 'NONE', #146, #103, #16 ) ;
#72 = CARTESIAN_POINT ( 'NONE',  ( 366.5624009856553600, 112.5921170640087900, 0.0000000000000000000 ) ) ;
#73 = VERTEX_POINT ( 'NONE', #33 ) ;
#74 = AXIS2_PLACEMENT_3D ( 'NONE', #83, #112, #141 ) ;
#75 = CYLINDRICAL_SURFACE ( 'NONE', #76, 6.250000000000005300 ) ;
#76 = AXIS2_PLACEMENT_3D ( 'NONE', #148, #62, #79 ) ;
#77 = CARTESIAN_POINT ( 'NONE',  ( 363.5086447192782100, 112.5921170640087900, 0.0000000000000000000 ) ) ;
#78 =( NAMED_UNIT ( * ) SI_UNIT ( $, .STERADIAN. ) SOLID_ANGLE_UNIT ( ) );
#79 = DIRECTION ( 'NONE',  ( 0.0000000000000000000, 0.0000000000000000000, 1.000000000000000000 ) ) ;
#80 = SHAPE_DEFINITION_REPRESENTATION ( #145, #150 ) ;
#81 = AXIS2_PLACEMENT_3D ( 'NONE', #119, #34, #102 ) ;
#82 = EDGE_LOOP ( 'NONE', ( #65, #131, #24, #135, #98 ) ) ;
#83 = CARTESIAN_POINT ( 'NONE',  ( 371.7561534876573400, 112.5921170640087900, 0.0000000000000000000 ) ) ;
#84 = DIRECTION ( 'NONE',  ( -1.000000000000000000, -0.0000000000000000000, -0.0000000000000000000 ) ) ;
#85 = ADVANCED_FACE ( 'NONE', ( #124 ), #129, .F. ) ;
#86 =( LENGTH_UNIT ( ) NAMED_UNIT ( * ) SI_UNIT ( .MILLI., .METRE. ) );
#87 = DIRECTION ( 'NONE',  ( 0.0000000000000000000, 0.0000000000000000000, 1.000000000000000000 ) ) ;
#88 = CIRCLE ( 'NONE', #74, 6.250000000000005300 ) ;
#89 = APPLICATION_PROTOCOL_DEFINITION ( 'draft international standard', 'automotive_design', 1998, #182 ) ;
#90 = DIRECTION ( 'NONE',  ( -1.000000000000000000, -0.0000000000000000000, -0.0000000000000000000 ) ) ;
#91 =( NAMED_UNIT ( * ) PLANE_ANGLE_UNIT ( ) SI_UNIT ( $, .RADIAN. ) );
#92 = SURFACE_SIDE_STYLE ('',( #67 ) ) ;
#93 = PRESENTATION_STYLE_ASSIGNMENT (( #122 ) ) ;
#94 = CLOSED_SHELL ( 'NONE', ( #180, #85, #130, #32, #114 ) ) ;
#95 = FACE_OUTER_BOUND ( 'NONE', #46, .T. ) ;
#96 = AXIS2_PLACEMENT_3D ( 'NONE', #174, #143, #171 ) ;
#97 = EDGE_CURVE ( 'NONE', #73, #58, #26, .T. ) ;
#98 = ORIENTED_EDGE ( 'NONE', *, *, #126, .T. ) ;
#99 = MANIFOLD_SOLID_BREP ( 'Ðý×ª1', #94 ) ;
#100 = VECTOR ( 'NONE', #90, 1000.000000000000000 ) ;
#101 =( NAMED_UNIT ( * ) SI_UNIT ( $, .STERADIAN. ) SOLID_ANGLE_UNIT ( ) );
#102 = DIRECTION ( 'NONE',  ( 0.0000000000000000000, -1.000000000000000000, -1.224646799147353900E-016 ) ) ;
#103 = DIRECTION ( 'NONE',  ( -1.000000000000000000, -0.0000000000000000000, -0.0000000000000000000 ) ) ;
#104 = DIRECTION ( 'NONE',  ( 0.0000000000000000000, 0.0000000000000000000, -1.000000000000000000 ) ) ;
#105 = EDGE_CURVE ( 'NONE', #155, #54, #44, .T. ) ;
#106 = SPHERICAL_SURFACE ( 'NONE', #41, 10.00000000000001600 ) ;
#107 = DIRECTION ( 'NONE',  ( 0.0000000000000000000, 0.0000000000000000000, 1.000000000000000000 ) ) ;
#108 = EDGE_LOOP ( 'NONE', ( #120, #177, #165, #5 ) ) ;
#109 = AXIS2_PLACEMENT_3D ( 'NONE', #163, #139, #29 ) ;
#110 = FACE_OUTER_BOUND ( 'NONE', #108, .T. ) ;
#111 = VERTEX_POINT ( 'NONE', #13 ) ;
#112 = DIRECTION ( 'NONE',  ( -1.000000000000000000, -0.0000000000000000000, -0.0000000000000000000 ) ) ;
#113 = EDGE_CURVE ( 'NONE', #38, #58, #10, .T. ) ;
#114 = ADVANCED_FACE ( 'NONE', ( #173 ), #133, .F. ) ;
#115 = CARTESIAN_POINT ( 'NONE',  ( 379.5624009856553600, 112.5921170640087900, 0.0000000000000000000 ) ) ;
#116 = CARTESIAN_POINT ( 'NONE',  ( 363.5086447192782100, 112.5921170640087900, 6.250000000000005300 ) ) ;
#117 = DIRECTION ( 'NONE',  ( 0.0000000000000000000, 0.0000000000000000000, 1.000000000000000000 ) ) ;
#118 = CARTESIAN_POINT ( 'NONE',  ( 366.5624009856553600, 112.5921170640087900, -6.250000000000005300 ) ) ;
#119 = CARTESIAN_POINT ( 'NONE',  ( 379.5624009856553600, 112.5921170640087900, 0.0000000000000000000 ) ) ;
#120 = ORIENTED_EDGE ( 'NONE', *, *, #113, .F. ) ;
#121 = AXIS2_PLACEMENT_3D ( 'NONE', #72, #27, #9 ) ;
#122 = SURFACE_STYLE_USAGE ( .BOTH. , #92 ) ;
#123 = UNCERTAINTY_MEASURE_WITH_UNIT (LENGTH_MEASURE( 1.000000000000000100E-005 ), #21, 'distance_accuracy_value', 'NONE');
#124 = FACE_OUTER_BOUND ( 'NONE', #179, .T. ) ;
#125 =( NAMED_UNIT ( * ) PLANE_ANGLE_UNIT ( ) SI_UNIT ( $, .RADIAN. ) );
#126 = EDGE_CURVE ( 'NONE', #111, #38, #138, .T. ) ;
#127 = PRODUCT_DEFINITION_FORMATION_WITH_SPECIFIED_SOURCE ( 'ÈÎºÎ', '', #176, .NOT_KNOWN. ) ;
#128 = VECTOR ( 'NONE', #84, 1000.000000000000000 ) ;
#129 = SPHERICAL_SURFACE ( 'NONE', #7, 10.00000000000001600 ) ;
#130 = ADVANCED_FACE ( 'NONE', ( #110 ), #106, .F. ) ;
#131 = ORIENTED_EDGE ( 'NONE', *, *, #39, .T. ) ;
#132 = CARTESIAN_POINT ( 'NONE',  ( 0.0000000000000000000, 0.0000000000000000000, 0.0000000000000000000 ) ) ;
#133 = PLANE ( 'NONE',  #166 ) ;
#134 = FILL_AREA_STYLE_COLOUR ( '', #22 ) ;
#135 = ORIENTED_EDGE ( 'NONE', *, *, #69, .F. ) ;
#136 = STYLED_ITEM ( 'NONE', ( #93 ), #150 ) ;
#137 = AXIS2_PLACEMENT_3D ( 'NONE', #77, #170, #87 ) ;
#138 = CIRCLE ( 'NONE', #96, 6.250000000000005300 ) ;
#139 = DIRECTION ( 'NONE',  ( -1.000000000000000000, -0.0000000000000000000, -0.0000000000000000000 ) ) ;
#140 = VERTEX_POINT ( 'NONE', #35 ) ;
#141 = DIRECTION ( 'NONE',  ( 0.0000000000000000000, 0.0000000000000000000, 1.000000000000000000 ) ) ;
#142 = AXIS2_PLACEMENT_3D ( 'NONE', #132, #107, #63 ) ;
#143 = DIRECTION ( 'NONE',  ( -1.000000000000000000, -0.0000000000000000000, -0.0000000000000000000 ) ) ;
#144 = FILL_AREA_STYLE_COLOUR ( '', #3 ) ;
#145 = PRODUCT_DEFINITION_SHAPE ( 'NONE', 'NONE',  #161 ) ;
#146 = CARTESIAN_POINT ( 'NONE',  ( 366.5624009856553600, 112.5921170640087900, 0.0000000000000000000 ) ) ;
#147 = ORIENTED_EDGE ( 'NONE', *, *, #105, .F. ) ;
#148 = CARTESIAN_POINT ( 'NONE',  ( 363.5086447192782100, 112.5921170640087900, 0.0000000000000000000 ) ) ;
#149 = LINE ( 'NONE', #12, #128 ) ;
#150 = ADVANCED_BREP_SHAPE_REPRESENTATION ( '270000', ( #99, #142 ), #183 ) ;
#151 = EDGE_LOOP ( 'NONE', ( #51, #43 ) ) ;
#152 = ORIENTED_EDGE ( 'NONE', *, *, #97, .F. ) ;
#153 = AXIS2_PLACEMENT_3D ( 'NONE', #115, #104, #172 ) ;
#154 = DIRECTION ( 'NONE',  ( 0.0000000000000000000, 0.0000000000000000000, 1.000000000000000000 ) ) ;
#155 = VERTEX_POINT ( 'NONE', #118 ) ;
#156 = CIRCLE ( 'NONE', #121, 6.250000000000005300 ) ;
#157 = APPLICATION_PROTOCOL_DEFINITION ( 'draft international standard', 'automotive_design', 1998, #66 ) ;
#158 = PRODUCT_RELATED_PRODUCT_CATEGORY ( 'part', '', ( #176 ) ) ;
#159 = LINE ( 'NONE', #116, #100 ) ;
#160 = CIRCLE ( 'NONE', #109, 6.250000000000005300 ) ;
#161 = PRODUCT_DEFINITION ( 'Î´Öª', '', #127, #40 ) ;
#162 = ORIENTED_EDGE ( 'NONE', *, *, #69, .T. ) ;
#163 = CARTESIAN_POINT ( 'NONE',  ( 371.7561534876573400, 112.5921170640087900, 0.0000000000000000000 ) ) ;
#164 = CARTESIAN_POINT ( 'NONE',  ( 369.5624009856553600, 112.5921170640087900, 0.0000000000000000000 ) ) ;
#165 = ORIENTED_EDGE ( 'NONE', *, *, #4, .F. ) ;
#166 = AXIS2_PLACEMENT_3D ( 'NONE', #1, #36, #185 ) ;
#167 = FACE_OUTER_BOUND ( 'NONE', #82, .T. ) ;
#168 = PRESENTATION_STYLE_ASSIGNMENT (( #15 ) ) ;
#169 =( LENGTH_UNIT ( ) NAMED_UNIT ( * ) SI_UNIT ( .MILLI., .METRE. ) );
#170 = DIRECTION ( 'NONE',  ( -1.000000000000000000, -0.0000000000000000000, -0.0000000000000000000 ) ) ;
#171 = DIRECTION ( 'NONE',  ( 0.0000000000000000000, 0.0000000000000000000, 1.000000000000000000 ) ) ;
#172 = DIRECTION ( 'NONE',  ( -1.000000000000000000, 0.0000000000000000000, 0.0000000000000000000 ) ) ;
#173 = FACE_OUTER_BOUND ( 'NONE', #151, .T. ) ;
#174 = CARTESIAN_POINT ( 'NONE',  ( 371.7561534876573400, 112.5921170640087900, 0.0000000000000000000 ) ) ;
#175 = DIRECTION ( 'NONE',  ( 0.0000000000000000000, 0.0000000000000000000, 1.000000000000000000 ) ) ;
#176 = PRODUCT ( '270000', '270000', '', ( #2 ) ) ;
#177 = ORIENTED_EDGE ( 'NONE', *, *, #126, .F. ) ;
#178 = UNCERTAINTY_MEASURE_WITH_UNIT (LENGTH_MEASURE( 1.000000000000000100E-005 ), #86, 'distance_accuracy_value', 'NONE');
#179 = EDGE_LOOP ( 'NONE', ( #23, #184, #152, #50 ) ) ;
#180 = ADVANCED_FACE ( 'NONE', ( #167 ), #75, .T. ) ;
#181 = CARTESIAN_POINT ( 'NONE',  ( 366.5624009856553600, 112.5921170640087900, 6.250000000000005300 ) ) ;
#182 = APPLICATION_CONTEXT ( 'automotive_design' ) ;
#183 =( GEOMETRIC_REPRESENTATION_CONTEXT ( 3 ) GLOBAL_UNCERTAINTY_ASSIGNED_CONTEXT ( ( #178 ) ) GLOBAL_UNIT_ASSIGNED_CONTEXT ( ( #86, #91, #101 ) ) REPRESENTATION_CONTEXT ( 'NONE', 'WORKASPACE' ) );
#184 = ORIENTED_EDGE ( 'NONE', *, *, #113, .T. ) ;
#185 = DIRECTION ( 'NONE',  ( 0.0000000000000000000, 0.0000000000000000000, -1.000000000000000000 ) ) ;
#186 = CARTESIAN_POINT ( 'NONE',  ( 379.5624009856553600, 112.5921170640087900, 0.0000000000000000000 ) ) ;
ENDSEC;
END-ISO-10303-21;
