ISO-10303-21;
HEADER;
FILE_DESCRIPTION (( 'STEP AP214' ),
    '1' );
FILE_NAME ('270034.STEP',
    '2020-06-05T06:05:25',
    ( '' ),
    ( '' ),
    'SwSTEP 2.0',
    'SolidWorks 2019',
    '' );
FILE_SCHEMA (( 'AUTOMOTIVE_DESIGN' ));
ENDSEC;

DATA;
#1 = ORIENTED_EDGE ( 'NONE', *, *, #91, .F. ) ;
#2 = CIRCLE ( 'NONE', #58, 68.87488656977954804 ) ;
#3 = AXIS2_PLACEMENT_3D ( 'NONE', #249, #74, #155 ) ;
#4 = STYLED_ITEM ( 'NONE', ( #10 ), #132 ) ;
#5 = ORIENTED_EDGE ( 'NONE', *, *, #34, .F. ) ;
#6 = DIRECTION ( 'NONE',  ( 1.000000000000000000, 1.387778780781445676E-16, -0.0000000000000000000 ) ) ;
#7 =( LENGTH_UNIT ( ) NAMED_UNIT ( * ) SI_UNIT ( .MILLI., .METRE. ) );
#8 = DIRECTION ( 'NONE',  ( 0.0000000000000000000, 0.0000000000000000000, -1.000000000000000000 ) ) ;
#9 = CARTESIAN_POINT ( 'NONE',  ( 0.0000000000000000000, 0.0000000000000000000, 0.0000000000000000000 ) ) ;
#10 = PRESENTATION_STYLE_ASSIGNMENT (( #184 ) ) ;
#11 = CARTESIAN_POINT ( 'NONE',  ( -12.49999999999999645, -12.50000000000000000, 0.0000000000000000000 ) ) ;
#12 = AXIS2_PLACEMENT_3D ( 'NONE', #237, #183, #66 ) ;
#13 = DIRECTION ( 'NONE',  ( -0.0000000000000000000, -0.0000000000000000000, -1.000000000000000000 ) ) ;
#14 = LINE ( 'NONE', #39, #119 ) ;
#15 = VERTEX_POINT ( 'NONE', #40 ) ;
#16 = CIRCLE ( 'NONE', #33, 68.87488656977954804 ) ;
#17 = EDGE_LOOP ( 'NONE', ( #199, #20, #112, #68, #229 ) ) ;
#18 = EDGE_LOOP ( 'NONE', ( #250, #208, #182, #178, #157 ) ) ;
#19 = ORIENTED_EDGE ( 'NONE', *, *, #127, .T. ) ;
#20 = ORIENTED_EDGE ( 'NONE', *, *, #200, .T. ) ;
#21 = SPHERICAL_SURFACE ( 'NONE', #113, 70.00000000000000000 ) ;
#22 = VECTOR ( 'NONE', #205, 1000.000000000000000 ) ;
#23 = LINE ( 'NONE', #121, #22 ) ;
#24 = DIRECTION ( 'NONE',  ( 0.0000000000000000000, -0.0000000000000000000, 1.000000000000000000 ) ) ;
#25 =( LENGTH_UNIT ( ) NAMED_UNIT ( * ) SI_UNIT ( .MILLI., .METRE. ) );
#26 = FACE_OUTER_BOUND ( 'NONE', #17, .T. ) ;
#27 = DIRECTION ( 'NONE',  ( 1.387778780781445676E-16, -1.000000000000000000, 0.0000000000000000000 ) ) ;
#28 = DIRECTION ( 'NONE',  ( 0.0000000000000000000, 0.0000000000000000000, -1.000000000000000000 ) ) ;
#29 = DIRECTION ( 'NONE',  ( -0.0000000000000000000, 1.000000000000000000, 0.0000000000000000000 ) ) ;
#30 = STYLED_ITEM ( 'NONE', ( #129 ), #69 ) ;
#31 = CARTESIAN_POINT ( 'NONE',  ( 9.307315673519885459E-15, -12.50000000000000000, 76.00000000000001421 ) ) ;
#32 = DIRECTION ( 'NONE',  ( 1.000000000000000000, 0.0000000000000000000, 0.0000000000000000000 ) ) ;
#33 = AXIS2_PLACEMENT_3D ( 'NONE', #87, #189, #120 ) ;
#34 = EDGE_CURVE ( 'NONE', #176, #79, #23, .T. ) ;
#35 = ORIENTED_EDGE ( 'NONE', *, *, #97, .F. ) ;
#36 =( GEOMETRIC_REPRESENTATION_CONTEXT ( 3 ) GLOBAL_UNCERTAINTY_ASSIGNED_CONTEXT ( ( #175 ) ) GLOBAL_UNIT_ASSIGNED_CONTEXT ( ( #25, #147, #108 ) ) REPRESENTATION_CONTEXT ( 'NONE', 'WORKASPACE' ) );
#37 = CIRCLE ( 'NONE', #126, 70.00000000000000000 ) ;
#38 = SHAPE_DEFINITION_REPRESENTATION ( #156, #132 ) ;
#39 = CARTESIAN_POINT ( 'NONE',  ( -12.50000000000000000, 12.50000000000000000, 20.00000000000000000 ) ) ;
#40 = CARTESIAN_POINT ( 'NONE',  ( -12.49999999999999645, -12.50000000000000000, 8.268914079279682028 ) ) ;
#41 = CARTESIAN_POINT ( 'NONE',  ( -12.49999999999999645, -12.50000000000000000, 20.00000000000000000 ) ) ;
#42 = AXIS2_PLACEMENT_3D ( 'NONE', #122, #244, #24 ) ;
#43 = SURFACE_SIDE_STYLE ('',( #194 ) ) ;
#44 = CARTESIAN_POINT ( 'NONE',  ( 0.0000000000000000000, 0.0000000000000000000, 0.0000000000000000000 ) ) ;
#45 = ORIENTED_EDGE ( 'NONE', *, *, #34, .T. ) ;
#46 = CARTESIAN_POINT ( 'NONE',  ( 12.50000000000000178, 1.734723475976806306E-15, 76.00000000000001421 ) ) ;
#47 = ADVANCED_FACE ( 'NONE', ( #26 ), #188, .F. ) ;
#48 = DIRECTION ( 'NONE',  ( 1.000000000000000000, 1.387778780781445676E-16, -0.0000000000000000000 ) ) ;
#49 = LINE ( 'NONE', #125, #248 ) ;
#50 =( GEOMETRIC_REPRESENTATION_CONTEXT ( 3 ) GLOBAL_UNCERTAINTY_ASSIGNED_CONTEXT ( ( #54 ) ) GLOBAL_UNIT_ASSIGNED_CONTEXT ( ( #166, #101, #104 ) ) REPRESENTATION_CONTEXT ( 'NONE', 'WORKASPACE' ) );
#51 = SURFACE_STYLE_USAGE ( .BOTH. , #43 ) ;
#52 = COLOUR_RGB ( '',1.000000000000000000, 1.000000000000000000, 1.000000000000000000 ) ;
#53 = DIRECTION ( 'NONE',  ( -1.511195353522040232E-16, 1.000000000000000000, 0.0000000000000000000 ) ) ;
#54 = UNCERTAINTY_MEASURE_WITH_UNIT (LENGTH_MEASURE( 1.000000000000000082E-05 ), #166, 'distance_accuracy_value', 'NONE');
#55 = VERTEX_POINT ( 'NONE', #149 ) ;
#56 = ORIENTED_EDGE ( 'NONE', *, *, #230, .T. ) ;
#57 = ORIENTED_EDGE ( 'NONE', *, *, #230, .F. ) ;
#58 = AXIS2_PLACEMENT_3D ( 'NONE', #63, #48, #151 ) ;
#59 = CIRCLE ( 'NONE', #192, 68.87488656977954804 ) ;
#60 = APPLICATION_CONTEXT ( 'automotive_design' ) ;
#61 = SURFACE_SIDE_STYLE ('',( #82 ) ) ;
#62 = VERTEX_POINT ( 'NONE', #67 ) ;
#63 = CARTESIAN_POINT ( 'NONE',  ( -12.49999999999999822, -1.734723475976808278E-15, 76.00000000000001421 ) ) ;
#64 = FACE_OUTER_BOUND ( 'NONE', #18, .T. ) ;
#65 = CARTESIAN_POINT ( 'NONE',  ( 12.50000000000000000, 12.50000000000000000, 8.268914079279682028 ) ) ;
#66 = DIRECTION ( 'NONE',  ( 1.000000000000000000, 0.0000000000000000000, 1.982541115402065110E-16 ) ) ;
#67 = CARTESIAN_POINT ( 'NONE',  ( -12.50000000000000000, 12.50000000000000000, 0.0000000000000000000 ) ) ;
#68 = ORIENTED_EDGE ( 'NONE', *, *, #173, .T. ) ;
#69 = MANIFOLD_SOLID_BREP ( 'ÇÐ³ý-Ðý×ª2', #251 ) ;
#70 = CARTESIAN_POINT ( 'NONE',  ( -12.50000000000000000, 12.50000000000000000, 0.0000000000000000000 ) ) ;
#71 = CARTESIAN_POINT ( 'NONE',  ( -12.50000000000000000, 1.530808498934194085E-15, 7.125113430220451960 ) ) ;
#72 = EDGE_CURVE ( 'NONE', #136, #216, #234, .T. ) ;
#73 = DIRECTION ( 'NONE',  ( 1.000000000000000000, 1.387778780781445676E-16, -0.0000000000000000000 ) ) ;
#74 = DIRECTION ( 'NONE',  ( 1.000000000000000000, 1.387778780781445676E-16, -0.0000000000000000000 ) ) ;
#75 = AXIS2_PLACEMENT_3D ( 'NONE', #31, #144, #152 ) ;
#76 = PRODUCT_DEFINITION ( 'Î´Öª', '', #145, #228 ) ;
#77 = ORIENTED_EDGE ( 'NONE', *, *, #72, .F. ) ;
#78 = EDGE_LOOP ( 'NONE', ( #162, #115, #5, #93 ) ) ;
#79 = VERTEX_POINT ( 'NONE', #243 ) ;
#80 = CARTESIAN_POINT ( 'NONE',  ( 12.50000000000000000, 12.50000000000000000, 0.0000000000000000000 ) ) ;
#81 = AXIS2_PLACEMENT_3D ( 'NONE', #85, #6, #83 ) ;
#82 = SURFACE_STYLE_FILL_AREA ( #187 ) ;
#83 = DIRECTION ( 'NONE',  ( -1.387778780781445676E-16, 1.000000000000000000, 0.0000000000000000000 ) ) ;
#84 = DIRECTION ( 'NONE',  ( 0.0000000000000000000, 0.0000000000000000000, 1.000000000000000000 ) ) ;
#85 = CARTESIAN_POINT ( 'NONE',  ( 12.50000000000000000, 12.50000000000000000, 20.00000000000000000 ) ) ;
#86 = APPLICATION_PROTOCOL_DEFINITION ( 'draft international standard', 'automotive_design', 1998, #150 ) ;
#87 = CARTESIAN_POINT ( 'NONE',  ( -12.49999999999999822, -1.734723475976808278E-15, 76.00000000000001421 ) ) ;
#88 = LINE ( 'NONE', #80, #179 ) ;
#89 = VECTOR ( 'NONE', #13, 1000.000000000000000 ) ;
#90 = EDGE_LOOP ( 'NONE', ( #232, #134, #139, #45 ) ) ;
#91 = EDGE_CURVE ( 'NONE', #201, #55, #59, .T. ) ;
#92 = PRESENTATION_LAYER_ASSIGNMENT (  '', '', ( #30 ) ) ;
#93 = ORIENTED_EDGE ( 'NONE', *, *, #161, .F. ) ;
#94 = ORIENTED_EDGE ( 'NONE', *, *, #173, .F. ) ;
#95 = EDGE_CURVE ( 'NONE', #62, #220, #49, .T. ) ;
#96 = EDGE_LOOP ( 'NONE', ( #77, #56, #142, #94 ) ) ;
#97 = EDGE_CURVE ( 'NONE', #55, #136, #111, .T. ) ;
#98 = ORIENTED_EDGE ( 'NONE', *, *, #200, .F. ) ;
#99 = AXIS2_PLACEMENT_3D ( 'NONE', #9, #28, #242 ) ;
#100 = CARTESIAN_POINT ( 'NONE',  ( 12.50000000000000355, -12.50000000000000000, 8.268914079279682028 ) ) ;
#101 =( NAMED_UNIT ( * ) PLANE_ANGLE_UNIT ( ) SI_UNIT ( $, .RADIAN. ) );
#102 = SPHERICAL_SURFACE ( 'NONE', #12, 70.00000000000000000 ) ;
#103 = CARTESIAN_POINT ( 'NONE',  ( 9.307315673519885459E-15, 0.0000000000000000000, 76.00000000000001421 ) ) ;
#104 =( NAMED_UNIT ( * ) SI_UNIT ( $, .STERADIAN. ) SOLID_ANGLE_UNIT ( ) );
#105 = DIRECTION ( 'NONE',  ( 1.387778780781445676E-16, -1.000000000000000000, 0.0000000000000000000 ) ) ;
#106 = LINE ( 'NONE', #191, #89 ) ;
#107 = DIRECTION ( 'NONE',  ( 0.0000000000000000000, -1.000000000000000000, 0.0000000000000000000 ) ) ;
#108 =( NAMED_UNIT ( * ) SI_UNIT ( $, .STERADIAN. ) SOLID_ANGLE_UNIT ( ) );
#109 = DIRECTION ( 'NONE',  ( -1.000000000000000000, 1.224646799147353207E-16, 0.0000000000000000000 ) ) ;
#110 = VERTEX_POINT ( 'NONE', #71 ) ;
#111 = CIRCLE ( 'NONE', #214, 68.87488656977954804 ) ;
#112 = ORIENTED_EDGE ( 'NONE', *, *, #211, .T. ) ;
#113 = AXIS2_PLACEMENT_3D ( 'NONE', #241, #29, #171 ) ;
#114 = ORIENTED_EDGE ( 'NONE', *, *, #141, .T. ) ;
#115 = ORIENTED_EDGE ( 'NONE', *, *, #160, .T. ) ;
#116 = PLANE ( 'NONE',  #172 ) ;
#117 =( NAMED_UNIT ( * ) SI_UNIT ( $, .STERADIAN. ) SOLID_ANGLE_UNIT ( ) );
#118 = EDGE_CURVE ( 'NONE', #201, #15, #181, .T. ) ;
#119 = VECTOR ( 'NONE', #143, 1000.000000000000000 ) ;
#120 = DIRECTION ( 'NONE',  ( -1.511195353522040232E-16, 1.000000000000000000, 0.0000000000000000000 ) ) ;
#121 = CARTESIAN_POINT ( 'NONE',  ( -12.49999999999999645, -12.50000000000000000, 0.0000000000000000000 ) ) ;
#122 = CARTESIAN_POINT ( 'NONE',  ( -12.49999999999999645, -12.50000000000000000, 20.00000000000000000 ) ) ;
#123 = DIRECTION ( 'NONE',  ( 1.224646799147353207E-16, 1.000000000000000000, 1.642572172939855061E-32 ) ) ;
#124 = CARTESIAN_POINT ( 'NONE',  ( 12.50000000000000000, 12.50000000000000000, 20.00000000000000000 ) ) ;
#125 = CARTESIAN_POINT ( 'NONE',  ( -12.50000000000000000, 12.50000000000000000, 0.0000000000000000000 ) ) ;
#126 = AXIS2_PLACEMENT_3D ( 'NONE', #222, #107, #8 ) ;
#127 = EDGE_CURVE ( 'NONE', #131, #110, #210, .T. ) ;
#128 = AXIS2_PLACEMENT_3D ( 'NONE', #44, #84, #138 ) ;
#129 = PRESENTATION_STYLE_ASSIGNMENT (( #51 ) ) ;
#130 = PRESENTATION_LAYER_ASSIGNMENT (  '', '', ( #4 ) ) ;
#131 = VERTEX_POINT ( 'NONE', #225 ) ;
#132 = ADVANCED_BREP_SHAPE_REPRESENTATION ( '270034', ( #69, #128 ), #50 ) ;
#133 = ADVANCED_FACE ( 'NONE', ( #195 ), #154, .T. ) ;
#134 = ORIENTED_EDGE ( 'NONE', *, *, #118, .T. ) ;
#135 = PRODUCT_RELATED_PRODUCT_CATEGORY ( 'part', '', ( #197 ) ) ;
#136 = VERTEX_POINT ( 'NONE', #65 ) ;
#137 = COLOUR_RGB ( '',1.000000000000000000, 1.000000000000000000, 1.000000000000000000 ) ;
#138 = DIRECTION ( 'NONE',  ( 1.000000000000000000, 0.0000000000000000000, 0.0000000000000000000 ) ) ;
#139 = ORIENTED_EDGE ( 'NONE', *, *, #223, .T. ) ;
#140 = LINE ( 'NONE', #70, #163 ) ;
#141 = EDGE_CURVE ( 'NONE', #201, #79, #106, .T. ) ;
#142 = ORIENTED_EDGE ( 'NONE', *, *, #95, .F. ) ;
#143 = DIRECTION ( 'NONE',  ( -0.0000000000000000000, -0.0000000000000000000, -1.000000000000000000 ) ) ;
#144 = DIRECTION ( 'NONE',  ( 0.0000000000000000000, 1.000000000000000000, 0.0000000000000000000 ) ) ;
#145 = PRODUCT_DEFINITION_FORMATION_WITH_SPECIFIED_SOURCE ( 'ÈÎºÎ', '', #197, .NOT_KNOWN. ) ;
#146 = DIRECTION ( 'NONE',  ( -0.0000000000000000000, -0.0000000000000000000, -1.000000000000000000 ) ) ;
#147 =( NAMED_UNIT ( * ) PLANE_ANGLE_UNIT ( ) SI_UNIT ( $, .RADIAN. ) );
#148 = LINE ( 'NONE', #124, #158 ) ;
#149 = CARTESIAN_POINT ( 'NONE',  ( 12.50000000000000355, -9.629649721936179265E-32, 7.125113430220451960 ) ) ;
#150 = APPLICATION_CONTEXT ( 'automotive_design' ) ;
#151 = DIRECTION ( 'NONE',  ( -1.511195353522040232E-16, 1.000000000000000000, 0.0000000000000000000 ) ) ;
#152 = DIRECTION ( 'NONE',  ( 0.0000000000000000000, 0.0000000000000000000, 1.000000000000000000 ) ) ;
#153 = VECTOR ( 'NONE', #146, 1000.000000000000000 ) ;
#154 = PLANE ( 'NONE',  #99 ) ;
#155 = DIRECTION ( 'NONE',  ( -1.387778780781445676E-16, 1.000000000000000000, 0.0000000000000000000 ) ) ;
#156 = PRODUCT_DEFINITION_SHAPE ( 'NONE', 'NONE',  #76 ) ;
#157 = ORIENTED_EDGE ( 'NONE', *, *, #211, .F. ) ;
#158 = VECTOR ( 'NONE', #167, 1000.000000000000000 ) ;
#159 = EDGE_LOOP ( 'NONE', ( #203, #19, #98, #177, #231 ) ) ;
#160 = EDGE_CURVE ( 'NONE', #220, #79, #88, .T. ) ;
#161 = EDGE_CURVE ( 'NONE', #62, #176, #140, .T. ) ;
#162 = ORIENTED_EDGE ( 'NONE', *, *, #95, .T. ) ;
#163 = VECTOR ( 'NONE', #105, 1000.000000000000000 ) ;
#164 = MECHANICAL_DESIGN_GEOMETRIC_PRESENTATION_REPRESENTATION (  '', ( #4 ), #236 ) ;
#165 = EDGE_LOOP ( 'NONE', ( #1, #114, #252, #57, #35 ) ) ;
#166 =( LENGTH_UNIT ( ) NAMED_UNIT ( * ) SI_UNIT ( .MILLI., .METRE. ) );
#167 = DIRECTION ( 'NONE',  ( -0.0000000000000000000, -0.0000000000000000000, -1.000000000000000000 ) ) ;
#168 = CARTESIAN_POINT ( 'NONE',  ( 12.50000000000000178, 1.734723475976806306E-15, 76.00000000000001421 ) ) ;
#169 = FACE_OUTER_BOUND ( 'NONE', #159, .T. ) ;
#170 = DIRECTION ( 'NONE',  ( -1.511195353522040232E-16, 1.000000000000000000, 0.0000000000000000000 ) ) ;
#171 = DIRECTION ( 'NONE',  ( 1.000000000000000000, 0.0000000000000000000, 1.982541115402065110E-16 ) ) ;
#172 = AXIS2_PLACEMENT_3D ( 'NONE', #202, #215, #185 ) ;
#173 = EDGE_CURVE ( 'NONE', #216, #62, #14, .T. ) ;
#174 = ADVANCED_FACE ( 'NONE', ( #206 ), #116, .T. ) ;
#175 = UNCERTAINTY_MEASURE_WITH_UNIT (LENGTH_MEASURE( 1.000000000000000082E-05 ), #25, 'distance_accuracy_value', 'NONE');
#176 = VERTEX_POINT ( 'NONE', #11 ) ;
#177 = ORIENTED_EDGE ( 'NONE', *, *, #118, .F. ) ;
#178 = ORIENTED_EDGE ( 'NONE', *, *, #72, .T. ) ;
#179 = VECTOR ( 'NONE', #27, 1000.000000000000000 ) ;
#180 =( NAMED_UNIT ( * ) PLANE_ANGLE_UNIT ( ) SI_UNIT ( $, .RADIAN. ) );
#181 = CIRCLE ( 'NONE', #75, 68.87488656977954804 ) ;
#182 = ORIENTED_EDGE ( 'NONE', *, *, #97, .T. ) ;
#183 = DIRECTION ( 'NONE',  ( -0.0000000000000000000, 1.000000000000000000, 0.0000000000000000000 ) ) ;
#184 = SURFACE_STYLE_USAGE ( .BOTH. , #61 ) ;
#185 = DIRECTION ( 'NONE',  ( 0.0000000000000000000, -0.0000000000000000000, 1.000000000000000000 ) ) ;
#186 = DIRECTION ( 'NONE',  ( 0.0000000000000000000, 1.000000000000000000, 0.0000000000000000000 ) ) ;
#187 = FILL_AREA_STYLE ('',( #235 ) ) ;
#188 = PLANE ( 'NONE',  #3 ) ;
#189 = DIRECTION ( 'NONE',  ( 1.000000000000000000, 1.387778780781445676E-16, -0.0000000000000000000 ) ) ;
#190 = ADVANCED_FACE ( 'NONE', ( #64 ), #21, .F. ) ;
#191 = CARTESIAN_POINT ( 'NONE',  ( 12.50000000000000355, -12.50000000000000000, 20.00000000000000000 ) ) ;
#192 = AXIS2_PLACEMENT_3D ( 'NONE', #46, #247, #170 ) ;
#193 = FACE_OUTER_BOUND ( 'NONE', #165, .T. ) ;
#194 = SURFACE_STYLE_FILL_AREA ( #227 ) ;
#195 = FACE_OUTER_BOUND ( 'NONE', #78, .T. ) ;
#196 = AXIS2_PLACEMENT_3D ( 'NONE', #103, #123, #109 ) ;
#197 = PRODUCT ( '270034', '270034', '', ( #240 ) ) ;
#198 = ADVANCED_FACE ( 'NONE', ( #238 ), #217, .F. ) ;
#199 = ORIENTED_EDGE ( 'NONE', *, *, #223, .F. ) ;
#200 = EDGE_CURVE ( 'NONE', #15, #110, #2, .T. ) ;
#201 = VERTEX_POINT ( 'NONE', #100 ) ;
#202 = CARTESIAN_POINT ( 'NONE',  ( -12.50000000000000000, 12.50000000000000000, 20.00000000000000000 ) ) ;
#203 = ORIENTED_EDGE ( 'NONE', *, *, #239, .F. ) ;
#204 = CARTESIAN_POINT ( 'NONE',  ( -12.50000000000000000, 12.50000000000000000, 8.268914079279682028 ) ) ;
#205 = DIRECTION ( 'NONE',  ( 1.000000000000000000, 0.0000000000000000000, 0.0000000000000000000 ) ) ;
#206 = FACE_OUTER_BOUND ( 'NONE', #96, .T. ) ;
#207 = CARTESIAN_POINT ( 'NONE',  ( 9.307315673519885459E-15, 12.50000000000000000, 76.00000000000001421 ) ) ;
#208 = ORIENTED_EDGE ( 'NONE', *, *, #239, .T. ) ;
#209 = LINE ( 'NONE', #41, #153 ) ;
#210 = CIRCLE ( 'NONE', #196, 70.00000000000000000 ) ;
#211 = EDGE_CURVE ( 'NONE', #110, #216, #16, .T. ) ;
#212 = UNCERTAINTY_MEASURE_WITH_UNIT (LENGTH_MEASURE( 1.000000000000000082E-05 ), #7, 'distance_accuracy_value', 'NONE');
#213 = AXIS2_PLACEMENT_3D ( 'NONE', #207, #186, #245 ) ;
#214 = AXIS2_PLACEMENT_3D ( 'NONE', #168, #73, #53 ) ;
#215 = DIRECTION ( 'NONE',  ( 0.0000000000000000000, 1.000000000000000000, 0.0000000000000000000 ) ) ;
#216 = VERTEX_POINT ( 'NONE', #204 ) ;
#217 = PLANE ( 'NONE',  #42 ) ;
#218 = FILL_AREA_STYLE_COLOUR ( '', #137 ) ;
#219 = MECHANICAL_DESIGN_GEOMETRIC_PRESENTATION_REPRESENTATION (  '', ( #30 ), #36 ) ;
#220 = VERTEX_POINT ( 'NONE', #224 ) ;
#221 = PLANE ( 'NONE',  #81 ) ;
#222 = CARTESIAN_POINT ( 'NONE',  ( 9.307315673519885459E-15, 0.0000000000000000000, 76.00000000000001421 ) ) ;
#223 = EDGE_CURVE ( 'NONE', #15, #176, #209, .T. ) ;
#224 = CARTESIAN_POINT ( 'NONE',  ( 12.50000000000000000, 12.50000000000000000, 0.0000000000000000000 ) ) ;
#225 = CARTESIAN_POINT ( 'NONE',  ( 2.298241322944826720E-14, 0.0000000000000000000, 6.000000000000005329 ) ) ;
#226 = ADVANCED_FACE ( 'NONE', ( #169 ), #102, .F. ) ;
#227 = FILL_AREA_STYLE ('',( #218 ) ) ;
#228 = PRODUCT_DEFINITION_CONTEXT ( 'detailed design', #150, 'design' ) ;
#229 = ORIENTED_EDGE ( 'NONE', *, *, #161, .T. ) ;
#230 = EDGE_CURVE ( 'NONE', #136, #220, #148, .T. ) ;
#231 = ORIENTED_EDGE ( 'NONE', *, *, #91, .T. ) ;
#232 = ORIENTED_EDGE ( 'NONE', *, *, #141, .F. ) ;
#233 = APPLICATION_PROTOCOL_DEFINITION ( 'draft international standard', 'automotive_design', 1998, #60 ) ;
#234 = CIRCLE ( 'NONE', #213, 68.87488656977954804 ) ;
#235 = FILL_AREA_STYLE_COLOUR ( '', #52 ) ;
#236 =( GEOMETRIC_REPRESENTATION_CONTEXT ( 3 ) GLOBAL_UNCERTAINTY_ASSIGNED_CONTEXT ( ( #212 ) ) GLOBAL_UNIT_ASSIGNED_CONTEXT ( ( #7, #180, #117 ) ) REPRESENTATION_CONTEXT ( 'NONE', 'WORKASPACE' ) );
#237 = CARTESIAN_POINT ( 'NONE',  ( 9.307315673519885459E-15, 0.0000000000000000000, 76.00000000000001421 ) ) ;
#238 = FACE_OUTER_BOUND ( 'NONE', #90, .T. ) ;
#239 = EDGE_CURVE ( 'NONE', #131, #55, #37, .T. ) ;
#240 = PRODUCT_CONTEXT ( 'NONE', #60, 'mechanical' ) ;
#241 = CARTESIAN_POINT ( 'NONE',  ( 9.307315673519885459E-15, 0.0000000000000000000, 76.00000000000001421 ) ) ;
#242 = DIRECTION ( 'NONE',  ( -1.000000000000000000, 0.0000000000000000000, -0.0000000000000000000 ) ) ;
#243 = CARTESIAN_POINT ( 'NONE',  ( 12.50000000000000355, -12.50000000000000000, 0.0000000000000000000 ) ) ;
#244 = DIRECTION ( 'NONE',  ( 0.0000000000000000000, 1.000000000000000000, 0.0000000000000000000 ) ) ;
#245 = DIRECTION ( 'NONE',  ( 0.0000000000000000000, 0.0000000000000000000, 1.000000000000000000 ) ) ;
#246 = ADVANCED_FACE ( 'NONE', ( #193 ), #221, .T. ) ;
#247 = DIRECTION ( 'NONE',  ( 1.000000000000000000, 1.387778780781445676E-16, -0.0000000000000000000 ) ) ;
#248 = VECTOR ( 'NONE', #32, 1000.000000000000000 ) ;
#249 = CARTESIAN_POINT ( 'NONE',  ( -12.50000000000000000, 12.50000000000000000, 20.00000000000000000 ) ) ;
#250 = ORIENTED_EDGE ( 'NONE', *, *, #127, .F. ) ;
#251 = CLOSED_SHELL ( 'NONE', ( #226, #174, #47, #198, #246, #133, #190 ) ) ;
#252 = ORIENTED_EDGE ( 'NONE', *, *, #160, .F. ) ;
ENDSEC;
END-ISO-10303-21;
