ISO-10303-21;
HEADER;
FILE_DESCRIPTION (( 'STEP AP214' ),
    '1' );
FILE_NAME ('270044.STEP',
    '2019-07-23T05:26:40',
    ( '' ),
    ( '' ),
    'SwSTEP 2.0',
    'SolidWorks 2016',
    '' );
FILE_SCHEMA (( 'AUTOMOTIVE_DESIGN' ));
ENDSEC;

DATA;
#1 = APPLICATION_CONTEXT ( 'automotive_design' ) ;
#2 = ADVANCED_FACE ( 'NONE', ( #58 ), #159, .F. ) ;
#3 = ORIENTED_EDGE ( 'NONE', *, *, #85, .F. ) ;
#4 = EDGE_CURVE ( 'NONE', #5, #132, #90, .T. ) ;
#5 = VERTEX_POINT ( 'NONE', #86 ) ;
#6 = CYLINDRICAL_SURFACE ( 'NONE', #59, 24.99999999999999300 ) ;
#7 = MECHANICAL_DESIGN_GEOMETRIC_PRESENTATION_REPRESENTATION (  '', ( #106 ), #129 ) ;
#8 = EDGE_LOOP ( 'NONE', ( #51, #164, #156 ) ) ;
#9 = CARTESIAN_POINT ( 'NONE',  ( 217.9702860043302100, 138.7560422467448700, -24.99999999999999300 ) ) ;
#10 = FACE_OUTER_BOUND ( 'NONE', #84, .T. ) ;
#11 = CARTESIAN_POINT ( 'NONE',  ( 439.1853110709693100, 138.7560422467448700, 9.212803964153693000E-006 ) ) ;
#12 = PLANE ( 'NONE',  #134 ) ;
#13 = ORIENTED_EDGE ( 'NONE', *, *, #85, .T. ) ;
#14 = AXIS2_PLACEMENT_3D ( 'NONE', #113, #148, #92 ) ;
#15 = EDGE_LOOP ( 'NONE', ( #91, #44, #70 ) ) ;
#16 =( NAMED_UNIT ( * ) PLANE_ANGLE_UNIT ( ) SI_UNIT ( $, .RADIAN. ) );
#17 = UNCERTAINTY_MEASURE_WITH_UNIT (LENGTH_MEASURE( 1.000000000000000100E-005 ), #146, 'distance_accuracy_value', 'NONE');
#18 = EDGE_LOOP ( 'NONE', ( #94, #13, #144, #114 ) ) ;
#19 = AXIS2_PLACEMENT_3D ( 'NONE', #24, #100, #124 ) ;
#20 = DIRECTION ( 'NONE',  ( -1.000000000000000000, -0.0000000000000000000, -0.0000000000000000000 ) ) ;
#21 = DIRECTION ( 'NONE',  ( -1.000000000000000000, -0.0000000000000000000, -0.0000000000000000000 ) ) ;
#22 = DIRECTION ( 'NONE',  ( 0.0000000000000000000, 0.0000000000000000000, 1.000000000000000000 ) ) ;
#23 = DIRECTION ( 'NONE',  ( 0.0000000000000000000, 0.0000000000000000000, 1.000000000000000000 ) ) ;
#24 = CARTESIAN_POINT ( 'NONE',  ( 439.1853110709693100, 138.7560422467448700, -9.212803964153693000E-006 ) ) ;
#25 = FACE_OUTER_BOUND ( 'NONE', #8, .T. ) ;
#26 = PRODUCT_DEFINITION_FORMATION_WITH_SPECIFIED_SOURCE ( 'ÈÎºÎ', '', #31, .NOT_KNOWN. ) ;
#27 = AXIS2_PLACEMENT_3D ( 'NONE', #161, #150, #93 ) ;
#28 = DIRECTION ( 'NONE',  ( -1.000000000000000000, -0.0000000000000000000, -0.0000000000000000000 ) ) ;
#29 = CARTESIAN_POINT ( 'NONE',  ( 439.1853110709693100, 138.7560422467448700, 0.0000000000000000000 ) ) ;
#30 = CIRCLE ( 'NONE', #19, 200.0000000000000000 ) ;
#31 = PRODUCT ( '270044', '270044', '', ( #126 ) ) ;
#32 = CARTESIAN_POINT ( 'NONE',  ( 240.7539639018294200, 138.7560422467448700, 0.0000000000000000000 ) ) ;
#33 = CARTESIAN_POINT ( 'NONE',  ( 230.1853110698390300, 138.7560422467448700, 24.99999999999999300 ) ) ;
#34 = SURFACE_STYLE_USAGE ( .BOTH. , #96 ) ;
#35 = LINE ( 'NONE', #9, #41 ) ;
#36 = CARTESIAN_POINT ( 'NONE',  ( 217.9702860043302100, 138.7560422467448700, 0.0000000000000000000 ) ) ;
#37 = PRESENTATION_STYLE_ASSIGNMENT (( #34 ) ) ;
#38 =( LENGTH_UNIT ( ) NAMED_UNIT ( * ) SI_UNIT ( .MILLI., .METRE. ) );
#39 = ADVANCED_FACE ( 'NONE', ( #25 ), #64, .F. ) ;
#40 = EDGE_CURVE ( 'NONE', #104, #78, #160, .T. ) ;
#41 = VECTOR ( 'NONE', #122, 1000.000000000000000 ) ;
#42 = ORIENTED_EDGE ( 'NONE', *, *, #50, .T. ) ;
#43 = FILL_AREA_STYLE ('',( #131 ) ) ;
#44 = ORIENTED_EDGE ( 'NONE', *, *, #56, .T. ) ;
#45 =( GEOMETRIC_REPRESENTATION_CONTEXT ( 3 ) GLOBAL_UNCERTAINTY_ASSIGNED_CONTEXT ( ( #125 ) ) GLOBAL_UNIT_ASSIGNED_CONTEXT ( ( #38, #165, #139 ) ) REPRESENTATION_CONTEXT ( 'NONE', 'WORKASPACE' ) );
#46 = CARTESIAN_POINT ( 'NONE',  ( 230.1853110698390300, 138.7560422467448700, -24.99999999999999300 ) ) ;
#47 = CARTESIAN_POINT ( 'NONE',  ( 240.7539639018294200, 138.7560422467448700, -24.99999999999999300 ) ) ;
#48 = APPLICATION_PROTOCOL_DEFINITION ( 'draft international standard', 'automotive_design', 1998, #1 ) ;
#49 = CLOSED_SHELL ( 'NONE', ( #79, #2, #39, #155, #115 ) ) ;
#50 = EDGE_CURVE ( 'NONE', #132, #5, #128, .T. ) ;
#51 = ORIENTED_EDGE ( 'NONE', *, *, #56, .F. ) ;
#52 = SURFACE_SIDE_STYLE ('',( #75 ) ) ;
#53 = APPLICATION_PROTOCOL_DEFINITION ( 'draft international standard', 'automotive_design', 1998, #57 ) ;
#54 = AXIS2_PLACEMENT_3D ( 'NONE', #105, #133, #118 ) ;
#55 = PRODUCT_DEFINITION_CONTEXT ( 'detailed design', #57, 'design' ) ;
#56 = EDGE_CURVE ( 'NONE', #132, #108, #143, .T. ) ;
#57 = APPLICATION_CONTEXT ( 'automotive_design' ) ;
#58 = FACE_OUTER_BOUND ( 'NONE', #15, .T. ) ;
#59 = AXIS2_PLACEMENT_3D ( 'NONE', #36, #21, #111 ) ;
#60 =( LENGTH_UNIT ( ) NAMED_UNIT ( * ) SI_UNIT ( .MILLI., .METRE. ) );
#61 = DIRECTION ( 'NONE',  ( -0.0000000000000000000, 1.000000000000000000, 1.224646799147353200E-016 ) ) ;
#62 = CARTESIAN_POINT ( 'NONE',  ( 217.9702860043302100, 138.7560422467448700, 24.99999999999999300 ) ) ;
#63 = EDGE_LOOP ( 'NONE', ( #149, #117 ) ) ;
#64 = TOROIDAL_SURFACE ( 'NONE', #89, -9.212803964153693000E-006, 200.0000000000000000 ) ;
#65 = PRODUCT_DEFINITION ( 'Î´Öª', '', #26, #55 ) ;
#66 = UNCERTAINTY_MEASURE_WITH_UNIT (LENGTH_MEASURE( 1.000000000000000100E-005 ), #60, 'distance_accuracy_value', 'NONE');
#67 =( GEOMETRIC_REPRESENTATION_CONTEXT ( 3 ) GLOBAL_UNCERTAINTY_ASSIGNED_CONTEXT ( ( #66 ) ) GLOBAL_UNIT_ASSIGNED_CONTEXT ( ( #60, #152, #88 ) ) REPRESENTATION_CONTEXT ( 'NONE', 'WORKASPACE' ) );
#68 = DIRECTION ( 'NONE',  ( 0.0000000000000000000, 0.0000000000000000000, 1.000000000000000000 ) ) ;
#69 = CYLINDRICAL_SURFACE ( 'NONE', #27, 24.99999999999999300 ) ;
#70 = ORIENTED_EDGE ( 'NONE', *, *, #87, .F. ) ;
#71 = DIRECTION ( 'NONE',  ( -1.000000000000000000, -0.0000000000000000000, -0.0000000000000000000 ) ) ;
#72 = STYLED_ITEM ( 'NONE', ( #37 ), #158 ) ;
#73 = DIRECTION ( 'NONE',  ( 1.000000000000000000, 0.0000000000000000000, 0.0000000000000000000 ) ) ;
#74 = DIRECTION ( 'NONE',  ( -1.000000000000000000, -0.0000000000000000000, -0.0000000000000000000 ) ) ;
#75 = SURFACE_STYLE_FILL_AREA ( #43 ) ;
#76 = DIRECTION ( 'NONE',  ( -1.000000000000000000, -0.0000000000000000000, -0.0000000000000000000 ) ) ;
#77 = PRODUCT_RELATED_PRODUCT_CATEGORY ( 'part', '', ( #31 ) ) ;
#78 = VERTEX_POINT ( 'NONE', #33 ) ;
#79 = ADVANCED_FACE ( 'NONE', ( #103 ), #69, .T. ) ;
#80 = MANIFOLD_SOLID_BREP ( 'Ðý×ª1', #49 ) ;
#81 = ORIENTED_EDGE ( 'NONE', *, *, #40, .F. ) ;
#82 = EDGE_CURVE ( 'NONE', #78, #104, #98, .T. ) ;
#83 = SURFACE_STYLE_USAGE ( .BOTH. , #52 ) ;
#84 = EDGE_LOOP ( 'NONE', ( #3, #42, #136, #81 ) ) ;
#85 = EDGE_CURVE ( 'NONE', #132, #104, #35, .T. ) ;
#86 = CARTESIAN_POINT ( 'NONE',  ( 240.7539639018294200, 138.7560422467448700, 24.99999999999999300 ) ) ;
#87 = EDGE_CURVE ( 'NONE', #5, #108, #30, .T. ) ;
#88 =( NAMED_UNIT ( * ) SI_UNIT ( $, .STERADIAN. ) SOLID_ANGLE_UNIT ( ) );
#89 = AXIS2_PLACEMENT_3D ( 'NONE', #163, #20, #110 ) ;
#90 = CIRCLE ( 'NONE', #123, 24.99999999999999300 ) ;
#91 = ORIENTED_EDGE ( 'NONE', *, *, #50, .F. ) ;
#92 = DIRECTION ( 'NONE',  ( 0.0000000000000000000, 0.0000000000000000000, 1.000000000000000000 ) ) ;
#93 = DIRECTION ( 'NONE',  ( 0.0000000000000000000, 0.0000000000000000000, 1.000000000000000000 ) ) ;
#94 = ORIENTED_EDGE ( 'NONE', *, *, #4, .T. ) ;
#95 = AXIS2_PLACEMENT_3D ( 'NONE', #11, #61, #99 ) ;
#96 = SURFACE_SIDE_STYLE ('',( #130 ) ) ;
#97 = CARTESIAN_POINT ( 'NONE',  ( 0.0000000000000000000, 0.0000000000000000000, 0.0000000000000000000 ) ) ;
#98 = CIRCLE ( 'NONE', #14, 24.99999999999999300 ) ;
#99 = DIRECTION ( 'NONE',  ( 0.0000000000000000000, -1.387778780781445700E-016, 1.000000000000000000 ) ) ;
#100 = DIRECTION ( 'NONE',  ( 0.0000000000000000000, -1.000000000000000000, 0.0000000000000000000 ) ) ;
#101 = LINE ( 'NONE', #62, #141 ) ;
#102 = COLOUR_RGB ( '',1.000000000000000000, 1.000000000000000000, 1.000000000000000000 ) ;
#103 = FACE_OUTER_BOUND ( 'NONE', #18, .T. ) ;
#104 = VERTEX_POINT ( 'NONE', #46 ) ;
#105 = CARTESIAN_POINT ( 'NONE',  ( 240.7539639018294200, 138.7560422467448700, 0.0000000000000000000 ) ) ;
#106 = STYLED_ITEM ( 'NONE', ( #147 ), #80 ) ;
#107 = COLOUR_RGB ( '',1.000000000000000000, 1.000000000000000000, 1.000000000000000000 ) ;
#108 = VERTEX_POINT ( 'NONE', #154 ) ;
#109 = AXIS2_PLACEMENT_3D ( 'NONE', #97, #22, #112 ) ;
#110 = DIRECTION ( 'NONE',  ( 0.0000000000000000000, 0.0000000000000000000, 1.000000000000000000 ) ) ;
#111 = DIRECTION ( 'NONE',  ( 0.0000000000000000000, 0.0000000000000000000, 1.000000000000000000 ) ) ;
#112 = DIRECTION ( 'NONE',  ( 1.000000000000000000, 0.0000000000000000000, 0.0000000000000000000 ) ) ;
#113 = CARTESIAN_POINT ( 'NONE',  ( 230.1853110698390300, 138.7560422467448700, 0.0000000000000000000 ) ) ;
#114 = ORIENTED_EDGE ( 'NONE', *, *, #157, .F. ) ;
#115 = ADVANCED_FACE ( 'NONE', ( #138 ), #12, .F. ) ;
#116 = PRESENTATION_LAYER_ASSIGNMENT (  '', '', ( #106 ) ) ;
#117 = ORIENTED_EDGE ( 'NONE', *, *, #40, .T. ) ;
#118 = DIRECTION ( 'NONE',  ( 0.0000000000000000000, 0.0000000000000000000, 1.000000000000000000 ) ) ;
#119 = PRODUCT_DEFINITION_SHAPE ( 'NONE', 'NONE',  #65 ) ;
#120 =( NAMED_UNIT ( * ) SI_UNIT ( $, .STERADIAN. ) SOLID_ANGLE_UNIT ( ) );
#121 = DIRECTION ( 'NONE',  ( 0.0000000000000000000, 0.0000000000000000000, 1.000000000000000000 ) ) ;
#122 = DIRECTION ( 'NONE',  ( -1.000000000000000000, -0.0000000000000000000, -0.0000000000000000000 ) ) ;
#123 = AXIS2_PLACEMENT_3D ( 'NONE', #32, #71, #121 ) ;
#124 = DIRECTION ( 'NONE',  ( 0.0000000000000000000, 0.0000000000000000000, -1.000000000000000000 ) ) ;
#125 = UNCERTAINTY_MEASURE_WITH_UNIT (LENGTH_MEASURE( 1.000000000000000100E-005 ), #38, 'distance_accuracy_value', 'NONE');
#126 = PRODUCT_CONTEXT ( 'NONE', #1, 'mechanical' ) ;
#127 = SHAPE_DEFINITION_REPRESENTATION ( #119, #158 ) ;
#128 = CIRCLE ( 'NONE', #54, 24.99999999999999300 ) ;
#129 =( GEOMETRIC_REPRESENTATION_CONTEXT ( 3 ) GLOBAL_UNCERTAINTY_ASSIGNED_CONTEXT ( ( #17 ) ) GLOBAL_UNIT_ASSIGNED_CONTEXT ( ( #146, #16, #120 ) ) REPRESENTATION_CONTEXT ( 'NONE', 'WORKASPACE' ) );
#130 = SURFACE_STYLE_FILL_AREA ( #137 ) ;
#131 = FILL_AREA_STYLE_COLOUR ( '', #107 ) ;
#132 = VERTEX_POINT ( 'NONE', #47 ) ;
#133 = DIRECTION ( 'NONE',  ( -1.000000000000000000, -0.0000000000000000000, -0.0000000000000000000 ) ) ;
#134 = AXIS2_PLACEMENT_3D ( 'NONE', #140, #73, #151 ) ;
#135 = MECHANICAL_DESIGN_GEOMETRIC_PRESENTATION_REPRESENTATION (  '', ( #72 ), #67 ) ;
#136 = ORIENTED_EDGE ( 'NONE', *, *, #157, .T. ) ;
#137 = FILL_AREA_STYLE ('',( #166 ) ) ;
#138 = FACE_OUTER_BOUND ( 'NONE', #63, .T. ) ;
#139 =( NAMED_UNIT ( * ) SI_UNIT ( $, .STERADIAN. ) SOLID_ANGLE_UNIT ( ) );
#140 = CARTESIAN_POINT ( 'NONE',  ( 230.1853110698390300, 138.7560422467448700, 0.0000000000000000000 ) ) ;
#141 = VECTOR ( 'NONE', #76, 1000.000000000000000 ) ;
#142 = PRESENTATION_LAYER_ASSIGNMENT (  '', '', ( #72 ) ) ;
#143 = CIRCLE ( 'NONE', #95, 200.0000000000000000 ) ;
#144 = ORIENTED_EDGE ( 'NONE', *, *, #82, .F. ) ;
#145 = AXIS2_PLACEMENT_3D ( 'NONE', #153, #74, #23 ) ;
#146 =( LENGTH_UNIT ( ) NAMED_UNIT ( * ) SI_UNIT ( .MILLI., .METRE. ) );
#147 = PRESENTATION_STYLE_ASSIGNMENT (( #83 ) ) ;
#148 = DIRECTION ( 'NONE',  ( -1.000000000000000000, -0.0000000000000000000, -0.0000000000000000000 ) ) ;
#149 = ORIENTED_EDGE ( 'NONE', *, *, #82, .T. ) ;
#150 = DIRECTION ( 'NONE',  ( -1.000000000000000000, -0.0000000000000000000, -0.0000000000000000000 ) ) ;
#151 = DIRECTION ( 'NONE',  ( 0.0000000000000000000, 0.0000000000000000000, -1.000000000000000000 ) ) ;
#152 =( NAMED_UNIT ( * ) PLANE_ANGLE_UNIT ( ) SI_UNIT ( $, .RADIAN. ) );
#153 = CARTESIAN_POINT ( 'NONE',  ( 230.1853110698390300, 138.7560422467448700, 0.0000000000000000000 ) ) ;
#154 = CARTESIAN_POINT ( 'NONE',  ( 239.1853110709695000, 138.7560422467448700, 0.0000000000000000000 ) ) ;
#155 = ADVANCED_FACE ( 'NONE', ( #10 ), #6, .T. ) ;
#156 = ORIENTED_EDGE ( 'NONE', *, *, #87, .T. ) ;
#157 = EDGE_CURVE ( 'NONE', #5, #78, #101, .T. ) ;
#158 = ADVANCED_BREP_SHAPE_REPRESENTATION ( '270044', ( #80, #109 ), #45 ) ;
#159 = TOROIDAL_SURFACE ( 'NONE', #162, -9.212803964153693000E-006, 200.0000000000000000 ) ;
#160 = CIRCLE ( 'NONE', #145, 24.99999999999999300 ) ;
#161 = CARTESIAN_POINT ( 'NONE',  ( 217.9702860043302100, 138.7560422467448700, 0.0000000000000000000 ) ) ;
#162 = AXIS2_PLACEMENT_3D ( 'NONE', #29, #28, #68 ) ;
#163 = CARTESIAN_POINT ( 'NONE',  ( 439.1853110709693100, 138.7560422467448700, 0.0000000000000000000 ) ) ;
#164 = ORIENTED_EDGE ( 'NONE', *, *, #4, .F. ) ;
#165 =( NAMED_UNIT ( * ) PLANE_ANGLE_UNIT ( ) SI_UNIT ( $, .RADIAN. ) );
#166 = FILL_AREA_STYLE_COLOUR ( '', #102 ) ;
ENDSEC;
END-ISO-10303-21;
