ISO-10303-21;
HEADER;
FILE_DESCRIPTION (( 'STEP AP214' ),
    '1' );
FILE_NAME ('270009.STEP',
    '2019-07-22T02:50:28',
    ( '' ),
    ( '' ),
    'SwSTEP 2.0',
    'SolidWorks 2016',
    '' );
FILE_SCHEMA (( 'AUTOMOTIVE_DESIGN' ));
ENDSEC;

DATA;
#1 = CARTESIAN_POINT ( 'NONE',  ( 60.67659249284014300, 34.68901056168621700, -6.250000000000012400 ) ) ;
#2 = DIRECTION ( 'NONE',  ( 0.0000000000000000000, -1.000000000000000000, -1.224646799147353200E-016 ) ) ;
#3 =( GEOMETRIC_REPRESENTATION_CONTEXT ( 3 ) GLOBAL_UNCERTAINTY_ASSIGNED_CONTEXT ( ( #75 ) ) GLOBAL_UNIT_ASSIGNED_CONTEXT ( ( #132, #148, #135 ) ) REPRESENTATION_CONTEXT ( 'NONE', 'WORKASPACE' ) );
#4 = ORIENTED_EDGE ( 'NONE', *, *, #94, .T. ) ;
#5 = FILL_AREA_STYLE_COLOUR ( '', #184 ) ;
#6 = APPLICATION_CONTEXT ( 'automotive_design' ) ;
#7 = FACE_OUTER_BOUND ( 'NONE', #25, .T. ) ;
#8 =( LENGTH_UNIT ( ) NAMED_UNIT ( * ) SI_UNIT ( .MILLI., .METRE. ) );
#9 = ORIENTED_EDGE ( 'NONE', *, *, #146, .F. ) ;
#10 = VERTEX_POINT ( 'NONE', #51 ) ;
#11 = CARTESIAN_POINT ( 'NONE',  ( 60.67659249284014300, 34.68901056168621700, 0.0000000000000000000 ) ) ;
#12 = DIRECTION ( 'NONE',  ( 0.0000000000000000000, 0.0000000000000000000, 1.000000000000000000 ) ) ;
#13 = PRESENTATION_STYLE_ASSIGNMENT (( #117 ) ) ;
#14 = DIRECTION ( 'NONE',  ( 0.0000000000000000000, -1.000000000000000000, 0.0000000000000000000 ) ) ;
#15 = EDGE_CURVE ( 'NONE', #124, #10, #40, .T. ) ;
#16 = EDGE_LOOP ( 'NONE', ( #83, #176, #9, #63 ) ) ;
#17 = ADVANCED_FACE ( 'NONE', ( #155 ), #23, .F. ) ;
#18 = DIRECTION ( 'NONE',  ( 0.0000000000000000000, 0.0000000000000000000, 1.000000000000000000 ) ) ;
#19 = CIRCLE ( 'NONE', #119, 6.250000000000012400 ) ;
#20 = FACE_OUTER_BOUND ( 'NONE', #137, .T. ) ;
#21 = ORIENTED_EDGE ( 'NONE', *, *, #57, .F. ) ;
#22 = STYLED_ITEM ( 'NONE', ( #121 ), #181 ) ;
#23 = SPHERICAL_SURFACE ( 'NONE', #108, 150.0000000000000000 ) ;
#24 = DIRECTION ( 'NONE',  ( -1.000000000000000000, -0.0000000000000000000, -0.0000000000000000000 ) ) ;
#25 = EDGE_LOOP ( 'NONE', ( #4, #182, #91, #103, #159 ) ) ;
#26 = CARTESIAN_POINT ( 'NONE',  ( 57.54632776745975800, 34.68901056168621700, 0.0000000000000000000 ) ) ;
#27 = CARTESIAN_POINT ( 'NONE',  ( 60.67659249284014300, 34.68901056168621700, 0.0000000000000000000 ) ) ;
#28 = CARTESIAN_POINT ( 'NONE',  ( 60.67659249284015000, 28.43901056168611400, 0.0000000000000000000 ) ) ;
#29 = DIRECTION ( 'NONE',  ( -1.000000000000000000, 0.0000000000000000000, 0.0000000000000000000 ) ) ;
#30 = PRESENTATION_LAYER_ASSIGNMENT (  '', '', ( #22 ) ) ;
#31 = SURFACE_SIDE_STYLE ('',( #53 ) ) ;
#32 = UNCERTAINTY_MEASURE_WITH_UNIT (LENGTH_MEASURE( 1.000000000000000100E-005 ), #8, 'distance_accuracy_value', 'NONE');
#33 = CARTESIAN_POINT ( 'NONE',  ( 210.5463275963626300, 34.68901056168623100, 0.0000000000000000000 ) ) ;
#34 = ADVANCED_FACE ( 'NONE', ( #116 ), #54, .T. ) ;
#35 = CIRCLE ( 'NONE', #175, 6.250000000000012400 ) ;
#36 = AXIS2_PLACEMENT_3D ( 'NONE', #128, #55, #171 ) ;
#37 = LINE ( 'NONE', #96, #71 ) ;
#38 = DIRECTION ( 'NONE',  ( -1.000000000000000000, -0.0000000000000000000, -0.0000000000000000000 ) ) ;
#39 = FILL_AREA_STYLE ('',( #67 ) ) ;
#40 = CIRCLE ( 'NONE', #123, 150.0000000000000000 ) ;
#41 = MECHANICAL_DESIGN_GEOMETRIC_PRESENTATION_REPRESENTATION (  '', ( #22 ), #48 ) ;
#42 = DIRECTION ( 'NONE',  ( -1.000000000000000000, -0.0000000000000000000, -0.0000000000000000000 ) ) ;
#43 = EDGE_CURVE ( 'NONE', #151, #147, #37, .T. ) ;
#44 = CLOSED_SHELL ( 'NONE', ( #90, #17, #178, #34, #154 ) ) ;
#45 = DIRECTION ( 'NONE',  ( 1.000000000000000000, 0.0000000000000000000, 0.0000000000000000000 ) ) ;
#46 = APPLICATION_PROTOCOL_DEFINITION ( 'draft international standard', 'automotive_design', 1998, #6 ) ;
#47 = EDGE_LOOP ( 'NONE', ( #173, #80, #74, #65, #21 ) ) ;
#48 =( GEOMETRIC_REPRESENTATION_CONTEXT ( 3 ) GLOBAL_UNCERTAINTY_ASSIGNED_CONTEXT ( ( #32 ) ) GLOBAL_UNIT_ASSIGNED_CONTEXT ( ( #8, #183, #72 ) ) REPRESENTATION_CONTEXT ( 'NONE', 'WORKASPACE' ) );
#49 = CIRCLE ( 'NONE', #97, 6.250000000000012400 ) ;
#50 = DIRECTION ( 'NONE',  ( -1.000000000000000000, -0.0000000000000000000, -0.0000000000000000000 ) ) ;
#51 = CARTESIAN_POINT ( 'NONE',  ( 60.54632759636263700, 34.68901056168622400, 0.0000000000000000000 ) ) ;
#52 = CARTESIAN_POINT ( 'NONE',  ( 60.67659249284014300, 34.68901056168621700, 0.0000000000000000000 ) ) ;
#53 = SURFACE_STYLE_FILL_AREA ( #161 ) ;
#54 = CYLINDRICAL_SURFACE ( 'NONE', #84, 6.250000000000005300 ) ;
#55 = DIRECTION ( 'NONE',  ( -1.000000000000000000, -0.0000000000000000000, -0.0000000000000000000 ) ) ;
#56 = ORIENTED_EDGE ( 'NONE', *, *, #146, .T. ) ;
#57 = EDGE_CURVE ( 'NONE', #141, #147, #111, .T. ) ;
#58 = DIRECTION ( 'NONE',  ( 0.0000000000000000000, 0.0000000000000000000, 1.000000000000000000 ) ) ;
#59 = AXIS2_PLACEMENT_3D ( 'NONE', #157, #156, #12 ) ;
#60 = APPLICATION_PROTOCOL_DEFINITION ( 'draft international standard', 'automotive_design', 1998, #138 ) ;
#61 = CYLINDRICAL_SURFACE ( 'NONE', #153, 6.250000000000005300 ) ;
#62 = PRODUCT ( '270009', '270009', '', ( #149 ) ) ;
#63 = ORIENTED_EDGE ( 'NONE', *, *, #185, .F. ) ;
#64 =( GEOMETRIC_REPRESENTATION_CONTEXT ( 3 ) GLOBAL_UNCERTAINTY_ASSIGNED_CONTEXT ( ( #165 ) ) GLOBAL_UNIT_ASSIGNED_CONTEXT ( ( #89, #163, #180 ) ) REPRESENTATION_CONTEXT ( 'NONE', 'WORKASPACE' ) );
#65 = ORIENTED_EDGE ( 'NONE', *, *, #43, .T. ) ;
#66 = DIRECTION ( 'NONE',  ( 0.0000000000000000000, 0.0000000000000000000, 1.000000000000000000 ) ) ;
#67 = FILL_AREA_STYLE_COLOUR ( '', #93 ) ;
#68 = DIRECTION ( 'NONE',  ( 0.0000000000000000000, -1.224646799147353200E-016, 1.000000000000000000 ) ) ;
#69 = CARTESIAN_POINT ( 'NONE',  ( 210.5463275963626300, 34.68901056168623100, 0.0000000000000000000 ) ) ;
#70 = VECTOR ( 'NONE', #139, 1000.000000000000000 ) ;
#71 = VECTOR ( 'NONE', #81, 1000.000000000000000 ) ;
#72 =( NAMED_UNIT ( * ) SI_UNIT ( $, .STERADIAN. ) SOLID_ANGLE_UNIT ( ) );
#73 = CARTESIAN_POINT ( 'NONE',  ( 54.49257150108255100, 34.68901056168621700, -6.250000000000005300 ) ) ;
#74 = ORIENTED_EDGE ( 'NONE', *, *, #92, .T. ) ;
#75 = UNCERTAINTY_MEASURE_WITH_UNIT (LENGTH_MEASURE( 1.000000000000000100E-005 ), #132, 'distance_accuracy_value', 'NONE');
#76 = CARTESIAN_POINT ( 'NONE',  ( 60.67659249284015000, 40.93901056168633100, 7.654042494671085800E-016 ) ) ;
#77 = PRODUCT_DEFINITION_CONTEXT ( 'detailed design', #6, 'design' ) ;
#78 = CARTESIAN_POINT ( 'NONE',  ( 57.54632776745975800, 34.68901056168621700, 6.249999999999998200 ) ) ;
#79 = DIRECTION ( 'NONE',  ( 0.0000000000000000000, 0.0000000000000000000, 1.000000000000000000 ) ) ;
#80 = ORIENTED_EDGE ( 'NONE', *, *, #185, .T. ) ;
#81 = DIRECTION ( 'NONE',  ( -1.000000000000000000, -0.0000000000000000000, -0.0000000000000000000 ) ) ;
#82 = EDGE_CURVE ( 'NONE', #151, #124, #102, .T. ) ;
#83 = ORIENTED_EDGE ( 'NONE', *, *, #94, .F. ) ;
#84 = AXIS2_PLACEMENT_3D ( 'NONE', #143, #100, #95 ) ;
#85 = SHAPE_DEFINITION_REPRESENTATION ( #174, #181 ) ;
#86 = EDGE_LOOP ( 'NONE', ( #99, #168, #142, #56 ) ) ;
#87 = DIRECTION ( 'NONE',  ( 0.0000000000000000000, 0.0000000000000000000, -1.000000000000000000 ) ) ;
#88 = EDGE_CURVE ( 'NONE', #147, #141, #140, .T. ) ;
#89 =( LENGTH_UNIT ( ) NAMED_UNIT ( * ) SI_UNIT ( .MILLI., .METRE. ) );
#90 = ADVANCED_FACE ( 'NONE', ( #7 ), #61, .T. ) ;
#91 = ORIENTED_EDGE ( 'NONE', *, *, #88, .F. ) ;
#92 = EDGE_CURVE ( 'NONE', #162, #151, #19, .T. ) ;
#93 = COLOUR_RGB ( '',1.000000000000000000, 1.000000000000000000, 1.000000000000000000 ) ;
#94 = EDGE_CURVE ( 'NONE', #124, #134, #49, .T. ) ;
#95 = DIRECTION ( 'NONE',  ( 0.0000000000000000000, 0.0000000000000000000, 1.000000000000000000 ) ) ;
#96 = CARTESIAN_POINT ( 'NONE',  ( 54.49257150108255100, 34.68901056168621700, 6.250000000000005300 ) ) ;
#97 = AXIS2_PLACEMENT_3D ( 'NONE', #52, #145, #66 ) ;
#98 = DIRECTION ( 'NONE',  ( 0.0000000000000000000, 0.0000000000000000000, 1.000000000000000000 ) ) ;
#99 = ORIENTED_EDGE ( 'NONE', *, *, #15, .F. ) ;
#100 = DIRECTION ( 'NONE',  ( -1.000000000000000000, -0.0000000000000000000, -0.0000000000000000000 ) ) ;
#101 = SURFACE_SIDE_STYLE ('',( #169 ) ) ;
#102 = CIRCLE ( 'NONE', #36, 6.250000000000012400 ) ;
#103 = ORIENTED_EDGE ( 'NONE', *, *, #43, .F. ) ;
#104 = CARTESIAN_POINT ( 'NONE',  ( 60.67659249284014300, 34.68901056168621700, 6.250000000000012400 ) ) ;
#105 = AXIS2_PLACEMENT_3D ( 'NONE', #150, #106, #107 ) ;
#106 = DIRECTION ( 'NONE',  ( 1.000000000000000000, 0.0000000000000000000, 0.0000000000000000000 ) ) ;
#107 = DIRECTION ( 'NONE',  ( 0.0000000000000000000, 0.0000000000000000000, -1.000000000000000000 ) ) ;
#108 = AXIS2_PLACEMENT_3D ( 'NONE', #112, #79, #114 ) ;
#109 = CIRCLE ( 'NONE', #110, 150.0000000000000000 ) ;
#110 = AXIS2_PLACEMENT_3D ( 'NONE', #33, #87, #29 ) ;
#111 = CIRCLE ( 'NONE', #59, 6.249999999999998200 ) ;
#112 = CARTESIAN_POINT ( 'NONE',  ( 210.5463275963626300, 34.68901056168623100, 0.0000000000000000000 ) ) ;
#113 = CARTESIAN_POINT ( 'NONE',  ( 57.54632776745975800, 34.68901056168621700, -6.249999999999998200 ) ) ;
#114 = DIRECTION ( 'NONE',  ( 0.0000000000000000000, -1.000000000000000000, 0.0000000000000000000 ) ) ;
#115 = AXIS2_PLACEMENT_3D ( 'NONE', #120, #18, #14 ) ;
#116 = FACE_OUTER_BOUND ( 'NONE', #47, .T. ) ;
#117 = SURFACE_STYLE_USAGE ( .BOTH. , #101 ) ;
#118 = MANIFOLD_SOLID_BREP ( 'Ðý×ª1', #44 ) ;
#119 = AXIS2_PLACEMENT_3D ( 'NONE', #11, #24, #98 ) ;
#120 = CARTESIAN_POINT ( 'NONE',  ( 210.5463275963626300, 34.68901056168623100, 0.0000000000000000000 ) ) ;
#121 = PRESENTATION_STYLE_ASSIGNMENT (( #136 ) ) ;
#122 = PLANE ( 'NONE',  #105 ) ;
#123 = AXIS2_PLACEMENT_3D ( 'NONE', #69, #68, #2 ) ;
#124 = VERTEX_POINT ( 'NONE', #76 ) ;
#125 = PRODUCT_DEFINITION_FORMATION_WITH_SPECIFIED_SOURCE ( 'ÈÎºÎ', '', #62, .NOT_KNOWN. ) ;
#126 = DIRECTION ( 'NONE',  ( 0.0000000000000000000, 0.0000000000000000000, 1.000000000000000000 ) ) ;
#127 = STYLED_ITEM ( 'NONE', ( #13 ), #118 ) ;
#128 = CARTESIAN_POINT ( 'NONE',  ( 60.67659249284014300, 34.68901056168621700, 0.0000000000000000000 ) ) ;
#129 = SPHERICAL_SURFACE ( 'NONE', #115, 150.0000000000000000 ) ;
#130 = ORIENTED_EDGE ( 'NONE', *, *, #88, .T. ) ;
#131 = PRODUCT_RELATED_PRODUCT_CATEGORY ( 'part', '', ( #62 ) ) ;
#132 =( LENGTH_UNIT ( ) NAMED_UNIT ( * ) SI_UNIT ( .MILLI., .METRE. ) );
#133 = PRESENTATION_LAYER_ASSIGNMENT (  '', '', ( #127 ) ) ;
#134 = VERTEX_POINT ( 'NONE', #1 ) ;
#135 =( NAMED_UNIT ( * ) SI_UNIT ( $, .STERADIAN. ) SOLID_ANGLE_UNIT ( ) );
#136 = SURFACE_STYLE_USAGE ( .BOTH. , #31 ) ;
#137 = EDGE_LOOP ( 'NONE', ( #130, #160 ) ) ;
#138 = APPLICATION_CONTEXT ( 'automotive_design' ) ;
#139 = DIRECTION ( 'NONE',  ( -1.000000000000000000, -0.0000000000000000000, -0.0000000000000000000 ) ) ;
#140 = CIRCLE ( 'NONE', #164, 6.249999999999998200 ) ;
#141 = VERTEX_POINT ( 'NONE', #113 ) ;
#142 = ORIENTED_EDGE ( 'NONE', *, *, #92, .F. ) ;
#143 = CARTESIAN_POINT ( 'NONE',  ( 54.49257150108255100, 34.68901056168621700, 0.0000000000000000000 ) ) ;
#144 = CARTESIAN_POINT ( 'NONE',  ( 54.49257150108255100, 34.68901056168621700, 0.0000000000000000000 ) ) ;
#145 = DIRECTION ( 'NONE',  ( -1.000000000000000000, -0.0000000000000000000, -0.0000000000000000000 ) ) ;
#146 = EDGE_CURVE ( 'NONE', #162, #10, #109, .T. ) ;
#147 = VERTEX_POINT ( 'NONE', #78 ) ;
#148 =( NAMED_UNIT ( * ) PLANE_ANGLE_UNIT ( ) SI_UNIT ( $, .RADIAN. ) );
#149 = PRODUCT_CONTEXT ( 'NONE', #138, 'mechanical' ) ;
#150 = CARTESIAN_POINT ( 'NONE',  ( 57.54632776745975800, 34.68901056168621700, 0.0000000000000000000 ) ) ;
#151 = VERTEX_POINT ( 'NONE', #104 ) ;
#152 = DIRECTION ( 'NONE',  ( 0.0000000000000000000, 0.0000000000000000000, 1.000000000000000000 ) ) ;
#153 = AXIS2_PLACEMENT_3D ( 'NONE', #144, #50, #170 ) ;
#154 = ADVANCED_FACE ( 'NONE', ( #20 ), #122, .F. ) ;
#155 = FACE_OUTER_BOUND ( 'NONE', #16, .T. ) ;
#156 = DIRECTION ( 'NONE',  ( -1.000000000000000000, -0.0000000000000000000, -0.0000000000000000000 ) ) ;
#157 = CARTESIAN_POINT ( 'NONE',  ( 57.54632776745975800, 34.68901056168621700, 0.0000000000000000000 ) ) ;
#158 = EDGE_CURVE ( 'NONE', #134, #141, #186, .T. ) ;
#159 = ORIENTED_EDGE ( 'NONE', *, *, #82, .T. ) ;
#160 = ORIENTED_EDGE ( 'NONE', *, *, #57, .T. ) ;
#161 = FILL_AREA_STYLE ('',( #5 ) ) ;
#162 = VERTEX_POINT ( 'NONE', #28 ) ;
#163 =( NAMED_UNIT ( * ) PLANE_ANGLE_UNIT ( ) SI_UNIT ( $, .RADIAN. ) );
#164 = AXIS2_PLACEMENT_3D ( 'NONE', #26, #38, #126 ) ;
#165 = UNCERTAINTY_MEASURE_WITH_UNIT (LENGTH_MEASURE( 1.000000000000000100E-005 ), #89, 'distance_accuracy_value', 'NONE');
#166 = PRODUCT_DEFINITION ( 'Î´Öª', '', #125, #77 ) ;
#167 = MECHANICAL_DESIGN_GEOMETRIC_PRESENTATION_REPRESENTATION (  '', ( #127 ), #3 ) ;
#168 = ORIENTED_EDGE ( 'NONE', *, *, #82, .F. ) ;
#169 = SURFACE_STYLE_FILL_AREA ( #39 ) ;
#170 = DIRECTION ( 'NONE',  ( 0.0000000000000000000, 0.0000000000000000000, 1.000000000000000000 ) ) ;
#171 = DIRECTION ( 'NONE',  ( 0.0000000000000000000, 0.0000000000000000000, 1.000000000000000000 ) ) ;
#172 = FACE_OUTER_BOUND ( 'NONE', #86, .T. ) ;
#173 = ORIENTED_EDGE ( 'NONE', *, *, #158, .F. ) ;
#174 = PRODUCT_DEFINITION_SHAPE ( 'NONE', 'NONE',  #166 ) ;
#175 = AXIS2_PLACEMENT_3D ( 'NONE', #27, #42, #58 ) ;
#176 = ORIENTED_EDGE ( 'NONE', *, *, #15, .T. ) ;
#177 = AXIS2_PLACEMENT_3D ( 'NONE', #179, #152, #45 ) ;
#178 = ADVANCED_FACE ( 'NONE', ( #172 ), #129, .F. ) ;
#179 = CARTESIAN_POINT ( 'NONE',  ( 0.0000000000000000000, 0.0000000000000000000, 0.0000000000000000000 ) ) ;
#180 =( NAMED_UNIT ( * ) SI_UNIT ( $, .STERADIAN. ) SOLID_ANGLE_UNIT ( ) );
#181 = ADVANCED_BREP_SHAPE_REPRESENTATION ( '270009', ( #118, #177 ), #64 ) ;
#182 = ORIENTED_EDGE ( 'NONE', *, *, #158, .T. ) ;
#183 =( NAMED_UNIT ( * ) PLANE_ANGLE_UNIT ( ) SI_UNIT ( $, .RADIAN. ) );
#184 = COLOUR_RGB ( '',1.000000000000000000, 1.000000000000000000, 1.000000000000000000 ) ;
#185 = EDGE_CURVE ( 'NONE', #134, #162, #35, .T. ) ;
#186 = LINE ( 'NONE', #73, #70 ) ;
ENDSEC;
END-ISO-10303-21;
