ISO-10303-21;
HEADER;
FILE_DESCRIPTION (( 'STEP AP214' ),
    '1' );
FILE_NAME ('270014.STEP',
    '2020-06-01T08:37:56',
    ( '' ),
    ( '' ),
    'SwSTEP 2.0',
    'SolidWorks 2019',
    '' );
FILE_SCHEMA (( 'AUTOMOTIVE_DESIGN' ));
ENDSEC;

DATA;
#1 = LINE ( 'NONE', #84, #163 ) ;
#2 = ADVANCED_FACE ( 'NONE', ( #113 ), #56, .F. ) ;
#3 = CARTESIAN_POINT ( 'NONE',  ( 6.250000000000000000, -6.250000000000000888, 0.0000000000000000000 ) ) ;
#4 = SURFACE_SIDE_STYLE ('',( #223 ) ) ;
#5 = PRODUCT ( '270014', '270014', '', ( #144 ) ) ;
#6 = VERTEX_POINT ( 'NONE', #246 ) ;
#7 = DIRECTION ( 'NONE',  ( 0.0000000000000000000, 0.0000000000000000000, -1.000000000000000000 ) ) ;
#8 = ORIENTED_EDGE ( 'NONE', *, *, #209, .T. ) ;
#9 = CARTESIAN_POINT ( 'NONE',  ( 0.0000000000000000000, 0.0000000000000000000, 0.0000000000000000000 ) ) ;
#10 = ORIENTED_EDGE ( 'NONE', *, *, #22, .T. ) ;
#11 = VECTOR ( 'NONE', #224, 1000.000000000000000 ) ;
#12 = EDGE_CURVE ( 'NONE', #201, #6, #162, .T. ) ;
#13 =( NAMED_UNIT ( * ) PLANE_ANGLE_UNIT ( ) SI_UNIT ( $, .RADIAN. ) );
#14 = VERTEX_POINT ( 'NONE', #247 ) ;
#15 = ORIENTED_EDGE ( 'NONE', *, *, #76, .T. ) ;
#16 = ORIENTED_EDGE ( 'NONE', *, *, #57, .T. ) ;
#17 = CARTESIAN_POINT ( 'NONE',  ( 6.250000000000000000, -6.250000000000000888, 3.787450787426177357 ) ) ;
#18 = AXIS2_PLACEMENT_3D ( 'NONE', #218, #197, #21 ) ;
#19 = APPLICATION_CONTEXT ( 'automotive_design' ) ;
#20 = DIRECTION ( 'NONE',  ( -0.0000000000000000000, 0.0000000000000000000, -1.000000000000000000 ) ) ;
#21 = DIRECTION ( 'NONE',  ( 0.0000000000000000000, -0.0000000000000000000, 1.000000000000000000 ) ) ;
#22 = EDGE_CURVE ( 'NONE', #6, #228, #73, .T. ) ;
#23 = STYLED_ITEM ( 'NONE', ( #119 ), #124 ) ;
#24 = AXIS2_PLACEMENT_3D ( 'NONE', #9, #141, #158 ) ;
#25 = SURFACE_STYLE_USAGE ( .BOTH. , #4 ) ;
#26 = DIRECTION ( 'NONE',  ( -1.000000000000000000, 1.224646799147353207E-16, 0.0000000000000000000 ) ) ;
#27 = VERTEX_POINT ( 'NONE', #149 ) ;
#28 = CARTESIAN_POINT ( 'NONE',  ( -6.250000000000000000, -6.250000000000000888, 3.787450787426177357 ) ) ;
#29 = AXIS2_PLACEMENT_3D ( 'NONE', #235, #234, #41 ) ;
#30 = CIRCLE ( 'NONE', #82, 49.60783708246108148 ) ;
#31 = LINE ( 'NONE', #49, #11 ) ;
#32 = ORIENTED_EDGE ( 'NONE', *, *, #209, .F. ) ;
#33 = ADVANCED_FACE ( 'NONE', ( #232 ), #129, .F. ) ;
#34 =( NAMED_UNIT ( * ) SI_UNIT ( $, .STERADIAN. ) SOLID_ANGLE_UNIT ( ) );
#35 = STYLED_ITEM ( 'NONE', ( #107 ), #80 ) ;
#36 = ORIENTED_EDGE ( 'NONE', *, *, #154, .F. ) ;
#37 = SURFACE_SIDE_STYLE ('',( #70 ) ) ;
#38 = ORIENTED_EDGE ( 'NONE', *, *, #214, .F. ) ;
#39 = DIRECTION ( 'NONE',  ( 1.000000000000000000, 0.0000000000000000000, 0.0000000000000000000 ) ) ;
#40 = ORIENTED_EDGE ( 'NONE', *, *, #75, .T. ) ;
#41 = DIRECTION ( 'NONE',  ( 1.000000000000000000, 0.0000000000000000000, -1.387778780781445676E-16 ) ) ;
#42 = AXIS2_PLACEMENT_3D ( 'NONE', #160, #164, #7 ) ;
#43 = ORIENTED_EDGE ( 'NONE', *, *, #214, .T. ) ;
#44 = ADVANCED_FACE ( 'NONE', ( #131 ), #174, .F. ) ;
#45 = DIRECTION ( 'NONE',  ( 1.000000000000000000, 0.0000000000000000000, -0.0000000000000000000 ) ) ;
#46 = PLANE ( 'NONE',  #143 ) ;
#47 = DIRECTION ( 'NONE',  ( 0.0000000000000000000, 0.0000000000000000000, -1.000000000000000000 ) ) ;
#48 = EDGE_LOOP ( 'NONE', ( #38, #185, #188, #183, #36 ) ) ;
#49 = CARTESIAN_POINT ( 'NONE',  ( 6.250000000000000000, 6.250000000000000888, 0.0000000000000000000 ) ) ;
#50 =( NAMED_UNIT ( * ) PLANE_ANGLE_UNIT ( ) SI_UNIT ( $, .RADIAN. ) );
#51 = ORIENTED_EDGE ( 'NONE', *, *, #233, .T. ) ;
#52 = VECTOR ( 'NONE', #114, 1000.000000000000000 ) ;
#53 = ORIENTED_EDGE ( 'NONE', *, *, #194, .F. ) ;
#54 = EDGE_LOOP ( 'NONE', ( #215, #10, #132, #72 ) ) ;
#55 = AXIS2_PLACEMENT_3D ( 'NONE', #248, #152, #78 ) ;
#56 = PLANE ( 'NONE',  #87 ) ;
#57 = EDGE_CURVE ( 'NONE', #14, #228, #193, .T. ) ;
#58 = CARTESIAN_POINT ( 'NONE',  ( 6.250000000000000000, -6.250000000000000888, 10.00000000000000000 ) ) ;
#59 = DIRECTION ( 'NONE',  ( -0.0000000000000000000, -0.0000000000000000000, -1.000000000000000000 ) ) ;
#60 = VECTOR ( 'NONE', #79, 1000.000000000000000 ) ;
#61 = CIRCLE ( 'NONE', #98, 50.00000000000000000 ) ;
#62 = MECHANICAL_DESIGN_GEOMETRIC_PRESENTATION_REPRESENTATION (  '', ( #35 ), #88 ) ;
#63 = CARTESIAN_POINT ( 'NONE',  ( 6.250000000000000000, 0.0000000000000000000, 53.00000000000000711 ) ) ;
#64 = ADVANCED_FACE ( 'NONE', ( #100 ), #81, .T. ) ;
#65 = CARTESIAN_POINT ( 'NONE',  ( -6.250000000000000000, 6.250000000000000888, 10.00000000000000000 ) ) ;
#66 = FACE_OUTER_BOUND ( 'NONE', #54, .T. ) ;
#67 = SURFACE_STYLE_USAGE ( .BOTH. , #37 ) ;
#68 = CIRCLE ( 'NONE', #101, 49.60783708246108148 ) ;
#69 = ORIENTED_EDGE ( 'NONE', *, *, #153, .F. ) ;
#70 = SURFACE_STYLE_FILL_AREA ( #211 ) ;
#71 = CIRCLE ( 'NONE', #225, 49.60783708246108148 ) ;
#72 = ORIENTED_EDGE ( 'NONE', *, *, #233, .F. ) ;
#73 = LINE ( 'NONE', #249, #52 ) ;
#74 = VERTEX_POINT ( 'NONE', #178 ) ;
#75 = EDGE_CURVE ( 'NONE', #14, #203, #236, .T. ) ;
#76 = EDGE_CURVE ( 'NONE', #93, #169, #135, .T. ) ;
#77 = AXIS2_PLACEMENT_3D ( 'NONE', #97, #96, #175 ) ;
#78 = DIRECTION ( 'NONE',  ( 1.000000000000000000, 0.0000000000000000000, -1.387778780781445676E-16 ) ) ;
#79 = DIRECTION ( 'NONE',  ( -0.0000000000000000000, -0.0000000000000000000, -1.000000000000000000 ) ) ;
#80 = ADVANCED_BREP_SHAPE_REPRESENTATION ( '270014', ( #124, #229 ), #172 ) ;
#81 = PLANE ( 'NONE',  #180 ) ;
#82 = AXIS2_PLACEMENT_3D ( 'NONE', #89, #181, #241 ) ;
#83 = DIRECTION ( 'NONE',  ( 0.0000000000000000000, 0.0000000000000000000, -1.000000000000000000 ) ) ;
#84 = CARTESIAN_POINT ( 'NONE',  ( -6.250000000000000000, 6.250000000000000888, 10.00000000000000000 ) ) ;
#85 = EDGE_CURVE ( 'NONE', #148, #203, #134, .T. ) ;
#86 =( LENGTH_UNIT ( ) NAMED_UNIT ( * ) SI_UNIT ( .MILLI., .METRE. ) );
#87 = AXIS2_PLACEMENT_3D ( 'NONE', #173, #191, #190 ) ;
#88 =( GEOMETRIC_REPRESENTATION_CONTEXT ( 3 ) GLOBAL_UNCERTAINTY_ASSIGNED_CONTEXT ( ( #156 ) ) GLOBAL_UNIT_ASSIGNED_CONTEXT ( ( #208, #13, #34 ) ) REPRESENTATION_CONTEXT ( 'NONE', 'WORKASPACE' ) );
#89 = CARTESIAN_POINT ( 'NONE',  ( 6.490628035480973107E-15, 6.250000000000000888, 53.00000000000000711 ) ) ;
#90 = LINE ( 'NONE', #166, #250 ) ;
#91 = ORIENTED_EDGE ( 'NONE', *, *, #75, .F. ) ;
#92 = MECHANICAL_DESIGN_GEOMETRIC_PRESENTATION_REPRESENTATION (  '', ( #23 ), #151 ) ;
#93 = VERTEX_POINT ( 'NONE', #17 ) ;
#94 = APPLICATION_PROTOCOL_DEFINITION ( 'draft international standard', 'automotive_design', 1998, #19 ) ;
#95 = VECTOR ( 'NONE', #155, 1000.000000000000000 ) ;
#96 = DIRECTION ( 'NONE',  ( 1.000000000000000000, 0.0000000000000000000, -0.0000000000000000000 ) ) ;
#97 = CARTESIAN_POINT ( 'NONE',  ( 6.250000000000000000, 0.0000000000000000000, 53.00000000000000711 ) ) ;
#98 = AXIS2_PLACEMENT_3D ( 'NONE', #122, #184, #200 ) ;
#99 = FILL_AREA_STYLE_COLOUR ( '', #130 ) ;
#100 = FACE_OUTER_BOUND ( 'NONE', #111, .T. ) ;
#101 = AXIS2_PLACEMENT_3D ( 'NONE', #216, #118, #177 ) ;
#102 = DIRECTION ( 'NONE',  ( 1.224646799147353207E-16, 1.000000000000000000, -1.929265328643519044E-32 ) ) ;
#103 = PRODUCT_RELATED_PRODUCT_CATEGORY ( 'part', '', ( #5 ) ) ;
#104 = DIRECTION ( 'NONE',  ( 0.0000000000000000000, -0.0000000000000000000, 1.000000000000000000 ) ) ;
#105 = CARTESIAN_POINT ( 'NONE',  ( 6.250000000000000000, 0.0000000000000000000, 3.392162917538923850 ) ) ;
#106 = PLANE ( 'NONE',  #24 ) ;
#107 = PRESENTATION_STYLE_ASSIGNMENT (( #67 ) ) ;
#108 = EDGE_LOOP ( 'NONE', ( #69, #43, #243, #204, #8 ) ) ;
#109 = ORIENTED_EDGE ( 'NONE', *, *, #117, .T. ) ;
#110 = AXIS2_PLACEMENT_3D ( 'NONE', #139, #198, #47 ) ;
#111 = EDGE_LOOP ( 'NONE', ( #32, #15, #53, #207, #231 ) ) ;
#112 = ORIENTED_EDGE ( 'NONE', *, *, #194, .T. ) ;
#113 = FACE_OUTER_BOUND ( 'NONE', #150, .T. ) ;
#114 = DIRECTION ( 'NONE',  ( -0.0000000000000000000, -0.0000000000000000000, -1.000000000000000000 ) ) ;
#115 = CARTESIAN_POINT ( 'NONE',  ( -6.250000000000000000, 6.250000000000000888, 0.0000000000000000000 ) ) ;
#116 = PRODUCT_DEFINITION_FORMATION_WITH_SPECIFIED_SOURCE ( 'ÈÎºÎ', '', #5, .NOT_KNOWN. ) ;
#117 = EDGE_CURVE ( 'NONE', #93, #148, #68, .T. ) ;
#118 = DIRECTION ( 'NONE',  ( 0.0000000000000000000, 1.000000000000000000, 0.0000000000000000000 ) ) ;
#119 = PRESENTATION_STYLE_ASSIGNMENT (( #25 ) ) ;
#120 = ADVANCED_FACE ( 'NONE', ( #157 ), #237, .F. ) ;
#121 = DIRECTION ( 'NONE',  ( 0.0000000000000000000, 1.000000000000000000, 0.0000000000000000000 ) ) ;
#122 = CARTESIAN_POINT ( 'NONE',  ( 6.490628035480973107E-15, 0.0000000000000000000, 53.00000000000000711 ) ) ;
#123 = CARTESIAN_POINT ( 'NONE',  ( -6.250000000000000000, 6.250000000000000888, 3.787450787426177357 ) ) ;
#124 = MANIFOLD_SOLID_BREP ( 'ÇÐ³ý-Ðý×ª2', #142 ) ;
#125 = EDGE_CURVE ( 'NONE', #148, #27, #221, .T. ) ;
#126 = ORIENTED_EDGE ( 'NONE', *, *, #133, .F. ) ;
#127 = EDGE_LOOP ( 'NONE', ( #16, #112, #126, #91 ) ) ;
#128 = VERTEX_POINT ( 'NONE', #123 ) ;
#129 = SPHERICAL_SURFACE ( 'NONE', #29, 50.00000000000000000 ) ;
#130 = COLOUR_RGB ( '',1.000000000000000000, 1.000000000000000000, 1.000000000000000000 ) ;
#131 = FACE_OUTER_BOUND ( 'NONE', #48, .T. ) ;
#132 = ORIENTED_EDGE ( 'NONE', *, *, #57, .F. ) ;
#133 = EDGE_CURVE ( 'NONE', #203, #169, #90, .T. ) ;
#134 = LINE ( 'NONE', #252, #60 ) ;
#135 = LINE ( 'NONE', #58, #206 ) ;
#136 = FACE_OUTER_BOUND ( 'NONE', #127, .T. ) ;
#137 = CIRCLE ( 'NONE', #42, 49.60783708246108148 ) ;
#138 =( NAMED_UNIT ( * ) PLANE_ANGLE_UNIT ( ) SI_UNIT ( $, .RADIAN. ) );
#139 = CARTESIAN_POINT ( 'NONE',  ( -6.250000000000000000, 0.0000000000000000000, 53.00000000000000711 ) ) ;
#140 = UNCERTAINTY_MEASURE_WITH_UNIT (LENGTH_MEASURE( 1.000000000000000082E-05 ), #86, 'distance_accuracy_value', 'NONE');
#141 = DIRECTION ( 'NONE',  ( 0.0000000000000000000, 0.0000000000000000000, -1.000000000000000000 ) ) ;
#142 = CLOSED_SHELL ( 'NONE', ( #33, #238, #2, #120, #64, #239, #44 ) ) ;
#143 = AXIS2_PLACEMENT_3D ( 'NONE', #65, #121, #104 ) ;
#144 = PRODUCT_CONTEXT ( 'NONE', #19, 'mechanical' ) ;
#145 = PRODUCT_DEFINITION ( 'Î´Öª', '', #116, #161 ) ;
#146 = ORIENTED_EDGE ( 'NONE', *, *, #154, .T. ) ;
#147 = CARTESIAN_POINT ( 'NONE',  ( 0.0000000000000000000, 0.0000000000000000000, 0.0000000000000000000 ) ) ;
#148 = VERTEX_POINT ( 'NONE', #28 ) ;
#149 = CARTESIAN_POINT ( 'NONE',  ( -6.250000000000000000, 7.654042494670955634E-16, 3.392162917538923850 ) ) ;
#150 = EDGE_LOOP ( 'NONE', ( #168, #212, #146, #51, #40 ) ) ;
#151 =( GEOMETRIC_REPRESENTATION_CONTEXT ( 3 ) GLOBAL_UNCERTAINTY_ASSIGNED_CONTEXT ( ( #140 ) ) GLOBAL_UNIT_ASSIGNED_CONTEXT ( ( #86, #138, #220 ) ) REPRESENTATION_CONTEXT ( 'NONE', 'WORKASPACE' ) );
#152 = DIRECTION ( 'NONE',  ( 0.0000000000000000000, 1.000000000000000000, 0.0000000000000000000 ) ) ;
#153 = EDGE_CURVE ( 'NONE', #74, #201, #61, .T. ) ;
#154 = EDGE_CURVE ( 'NONE', #27, #128, #137, .T. ) ;
#155 = DIRECTION ( 'NONE',  ( 1.000000000000000000, 0.0000000000000000000, 0.0000000000000000000 ) ) ;
#156 = UNCERTAINTY_MEASURE_WITH_UNIT (LENGTH_MEASURE( 1.000000000000000082E-05 ), #208, 'distance_accuracy_value', 'NONE');
#157 = FACE_OUTER_BOUND ( 'NONE', #170, .T. ) ;
#158 = DIRECTION ( 'NONE',  ( -1.000000000000000000, 0.0000000000000000000, -0.0000000000000000000 ) ) ;
#159 = DIRECTION ( 'NONE',  ( -0.0000000000000000000, -0.0000000000000000000, -1.000000000000000000 ) ) ;
#160 = CARTESIAN_POINT ( 'NONE',  ( -6.250000000000000000, 0.0000000000000000000, 53.00000000000000711 ) ) ;
#161 = PRODUCT_DEFINITION_CONTEXT ( 'detailed design', #245, 'design' ) ;
#162 = CIRCLE ( 'NONE', #77, 49.60783708246108148 ) ;
#163 = VECTOR ( 'NONE', #159, 1000.000000000000000 ) ;
#164 = DIRECTION ( 'NONE',  ( 1.000000000000000000, 0.0000000000000000000, -0.0000000000000000000 ) ) ;
#165 = ORIENTED_EDGE ( 'NONE', *, *, #76, .F. ) ;
#166 = CARTESIAN_POINT ( 'NONE',  ( -6.250000000000000000, -6.250000000000000888, 0.0000000000000000000 ) ) ;
#167 = ORIENTED_EDGE ( 'NONE', *, *, #133, .T. ) ;
#168 = ORIENTED_EDGE ( 'NONE', *, *, #85, .F. ) ;
#169 = VERTEX_POINT ( 'NONE', #3 ) ;
#170 = EDGE_LOOP ( 'NONE', ( #165, #109, #210, #167 ) ) ;
#171 = VECTOR ( 'NONE', #196, 1000.000000000000000 ) ;
#172 =( GEOMETRIC_REPRESENTATION_CONTEXT ( 3 ) GLOBAL_UNCERTAINTY_ASSIGNED_CONTEXT ( ( #222 ) ) GLOBAL_UNIT_ASSIGNED_CONTEXT ( ( #219, #50, #226 ) ) REPRESENTATION_CONTEXT ( 'NONE', 'WORKASPACE' ) );
#173 = CARTESIAN_POINT ( 'NONE',  ( -6.250000000000000000, 6.250000000000000888, 10.00000000000000000 ) ) ;
#174 = SPHERICAL_SURFACE ( 'NONE', #55, 50.00000000000000000 ) ;
#175 = DIRECTION ( 'NONE',  ( 0.0000000000000000000, 0.0000000000000000000, -1.000000000000000000 ) ) ;
#176 = PRESENTATION_LAYER_ASSIGNMENT (  '', '', ( #35 ) ) ;
#177 = DIRECTION ( 'NONE',  ( 0.0000000000000000000, 0.0000000000000000000, 1.000000000000000000 ) ) ;
#178 = CARTESIAN_POINT ( 'NONE',  ( 1.675421568874746747E-15, 0.0000000000000000000, 3.000000000000002665 ) ) ;
#179 = DIRECTION ( 'NONE',  ( 1.000000000000000000, 0.0000000000000000000, -0.0000000000000000000 ) ) ;
#180 = AXIS2_PLACEMENT_3D ( 'NONE', #195, #45, #20 ) ;
#181 = DIRECTION ( 'NONE',  ( 0.0000000000000000000, 1.000000000000000000, 0.0000000000000000000 ) ) ;
#182 = FILL_AREA_STYLE ('',( #99 ) ) ;
#183 = ORIENTED_EDGE ( 'NONE', *, *, #227, .T. ) ;
#184 = DIRECTION ( 'NONE',  ( 0.0000000000000000000, -1.000000000000000000, -0.0000000000000000000 ) ) ;
#185 = ORIENTED_EDGE ( 'NONE', *, *, #153, .T. ) ;
#186 = CARTESIAN_POINT ( 'NONE',  ( 6.490628035480973107E-15, 0.0000000000000000000, 53.00000000000000711 ) ) ;
#187 = DIRECTION ( 'NONE',  ( 0.0000000000000000000, 0.0000000000000000000, 1.000000000000000000 ) ) ;
#188 = ORIENTED_EDGE ( 'NONE', *, *, #12, .T. ) ;
#189 = COLOUR_RGB ( '',1.000000000000000000, 1.000000000000000000, 1.000000000000000000 ) ;
#190 = DIRECTION ( 'NONE',  ( -0.0000000000000000000, 0.0000000000000000000, -1.000000000000000000 ) ) ;
#191 = DIRECTION ( 'NONE',  ( 1.000000000000000000, 0.0000000000000000000, -0.0000000000000000000 ) ) ;
#192 = CIRCLE ( 'NONE', #217, 50.00000000000000000 ) ;
#193 = LINE ( 'NONE', #251, #95 ) ;
#194 = EDGE_CURVE ( 'NONE', #228, #169, #31, .T. ) ;
#195 = CARTESIAN_POINT ( 'NONE',  ( 6.250000000000000000, 6.250000000000000888, 10.00000000000000000 ) ) ;
#196 = DIRECTION ( 'NONE',  ( 0.0000000000000000000, -1.000000000000000000, 0.0000000000000000000 ) ) ;
#197 = DIRECTION ( 'NONE',  ( 0.0000000000000000000, 1.000000000000000000, 0.0000000000000000000 ) ) ;
#198 = DIRECTION ( 'NONE',  ( 1.000000000000000000, 0.0000000000000000000, -0.0000000000000000000 ) ) ;
#199 = PRESENTATION_LAYER_ASSIGNMENT (  '', '', ( #23 ) ) ;
#200 = DIRECTION ( 'NONE',  ( 0.0000000000000000000, 0.0000000000000000000, -1.000000000000000000 ) ) ;
#201 = VERTEX_POINT ( 'NONE', #105 ) ;
#202 = DIRECTION ( 'NONE',  ( 1.000000000000000000, 0.0000000000000000000, 0.0000000000000000000 ) ) ;
#203 = VERTEX_POINT ( 'NONE', #240 ) ;
#204 = ORIENTED_EDGE ( 'NONE', *, *, #117, .F. ) ;
#205 = PRODUCT_DEFINITION_SHAPE ( 'NONE', 'NONE',  #145 ) ;
#206 = VECTOR ( 'NONE', #59, 1000.000000000000000 ) ;
#207 = ORIENTED_EDGE ( 'NONE', *, *, #22, .F. ) ;
#208 =( LENGTH_UNIT ( ) NAMED_UNIT ( * ) SI_UNIT ( .MILLI., .METRE. ) );
#209 = EDGE_CURVE ( 'NONE', #93, #201, #71, .T. ) ;
#210 = ORIENTED_EDGE ( 'NONE', *, *, #85, .T. ) ;
#211 = FILL_AREA_STYLE ('',( #213 ) ) ;
#212 = ORIENTED_EDGE ( 'NONE', *, *, #125, .T. ) ;
#213 = FILL_AREA_STYLE_COLOUR ( '', #189 ) ;
#214 = EDGE_CURVE ( 'NONE', #74, #27, #192, .T. ) ;
#215 = ORIENTED_EDGE ( 'NONE', *, *, #227, .F. ) ;
#216 = CARTESIAN_POINT ( 'NONE',  ( 6.490628035480973107E-15, -6.250000000000000888, 53.00000000000000711 ) ) ;
#217 = AXIS2_PLACEMENT_3D ( 'NONE', #186, #102, #26 ) ;
#218 = CARTESIAN_POINT ( 'NONE',  ( -6.250000000000000000, -6.250000000000000888, 10.00000000000000000 ) ) ;
#219 =( LENGTH_UNIT ( ) NAMED_UNIT ( * ) SI_UNIT ( .MILLI., .METRE. ) );
#220 =( NAMED_UNIT ( * ) SI_UNIT ( $, .STERADIAN. ) SOLID_ANGLE_UNIT ( ) );
#221 = CIRCLE ( 'NONE', #110, 49.60783708246108148 ) ;
#222 = UNCERTAINTY_MEASURE_WITH_UNIT (LENGTH_MEASURE( 1.000000000000000082E-05 ), #219, 'distance_accuracy_value', 'NONE');
#223 = SURFACE_STYLE_FILL_AREA ( #182 ) ;
#224 = DIRECTION ( 'NONE',  ( 0.0000000000000000000, -1.000000000000000000, 0.0000000000000000000 ) ) ;
#225 = AXIS2_PLACEMENT_3D ( 'NONE', #63, #179, #83 ) ;
#226 =( NAMED_UNIT ( * ) SI_UNIT ( $, .STERADIAN. ) SOLID_ANGLE_UNIT ( ) );
#227 = EDGE_CURVE ( 'NONE', #6, #128, #30, .T. ) ;
#228 = VERTEX_POINT ( 'NONE', #242 ) ;
#229 = AXIS2_PLACEMENT_3D ( 'NONE', #147, #187, #39 ) ;
#230 = SHAPE_DEFINITION_REPRESENTATION ( #205, #80 ) ;
#231 = ORIENTED_EDGE ( 'NONE', *, *, #12, .F. ) ;
#232 = FACE_OUTER_BOUND ( 'NONE', #108, .T. ) ;
#233 = EDGE_CURVE ( 'NONE', #128, #14, #1, .T. ) ;
#234 = DIRECTION ( 'NONE',  ( 0.0000000000000000000, 1.000000000000000000, 0.0000000000000000000 ) ) ;
#235 = CARTESIAN_POINT ( 'NONE',  ( 6.490628035480973107E-15, 0.0000000000000000000, 53.00000000000000711 ) ) ;
#236 = LINE ( 'NONE', #115, #171 ) ;
#237 = PLANE ( 'NONE',  #18 ) ;
#238 = ADVANCED_FACE ( 'NONE', ( #66 ), #46, .T. ) ;
#239 = ADVANCED_FACE ( 'NONE', ( #136 ), #106, .T. ) ;
#240 = CARTESIAN_POINT ( 'NONE',  ( -6.250000000000000000, -6.250000000000000888, 0.0000000000000000000 ) ) ;
#241 = DIRECTION ( 'NONE',  ( 0.0000000000000000000, 0.0000000000000000000, 1.000000000000000000 ) ) ;
#242 = CARTESIAN_POINT ( 'NONE',  ( 6.250000000000000000, 6.250000000000000888, 0.0000000000000000000 ) ) ;
#243 = ORIENTED_EDGE ( 'NONE', *, *, #125, .F. ) ;
#244 = APPLICATION_PROTOCOL_DEFINITION ( 'draft international standard', 'automotive_design', 1998, #245 ) ;
#245 = APPLICATION_CONTEXT ( 'automotive_design' ) ;
#246 = CARTESIAN_POINT ( 'NONE',  ( 6.250000000000000000, 6.250000000000000888, 3.787450787426177357 ) ) ;
#247 = CARTESIAN_POINT ( 'NONE',  ( -6.250000000000000000, 6.250000000000000888, 0.0000000000000000000 ) ) ;
#248 = CARTESIAN_POINT ( 'NONE',  ( 6.490628035480973107E-15, 0.0000000000000000000, 53.00000000000000711 ) ) ;
#249 = CARTESIAN_POINT ( 'NONE',  ( 6.250000000000000000, 6.250000000000000888, 10.00000000000000000 ) ) ;
#250 = VECTOR ( 'NONE', #202, 1000.000000000000000 ) ;
#251 = CARTESIAN_POINT ( 'NONE',  ( -6.250000000000000000, 6.250000000000000888, 0.0000000000000000000 ) ) ;
#252 = CARTESIAN_POINT ( 'NONE',  ( -6.250000000000000000, -6.250000000000000888, 10.00000000000000000 ) ) ;
ENDSEC;
END-ISO-10303-21;
