ISO-10303-21;
HEADER;
FILE_DESCRIPTION (( 'STEP AP214' ),
    '1' );
FILE_NAME ('270020.STEP',
    '2019-07-22T06:07:40',
    ( '' ),
    ( '' ),
    'SwSTEP 2.0',
    'SolidWorks 2016',
    '' );
FILE_SCHEMA (( 'AUTOMOTIVE_DESIGN' ));
ENDSEC;

DATA;
#1 = CARTESIAN_POINT ( 'NONE',  ( 161.0926555349195200, 69.37802112337243400, 0.0000000000000000000 ) ) ;
#2 = EDGE_CURVE ( 'NONE', #79, #125, #76, .T. ) ;
#3 = DIRECTION ( 'NONE',  ( 0.0000000000000000000, -1.000000000000000000, 0.0000000000000000000 ) ) ;
#4 = CARTESIAN_POINT ( 'NONE',  ( 123.0959451509928800, 69.37802112337243400, 0.0000000000000000000 ) ) ;
#5 = EDGE_LOOP ( 'NONE', ( #113, #109, #13, #152 ) ) ;
#6 = DIRECTION ( 'NONE',  ( 0.0000000000000000000, -1.000000000000000000, -1.224646799147353200E-016 ) ) ;
#7 = FILL_AREA_STYLE ('',( #107 ) ) ;
#8 =( NAMED_UNIT ( * ) SI_UNIT ( $, .STERADIAN. ) SOLID_ANGLE_UNIT ( ) );
#9 = CLOSED_SHELL ( 'NONE', ( #10, #93, #155, #183, #81 ) ) ;
#10 = ADVANCED_FACE ( 'NONE', ( #123 ), #127, .T. ) ;
#11 = ORIENTED_EDGE ( 'NONE', *, *, #153, .T. ) ;
#12 = AXIS2_PLACEMENT_3D ( 'NONE', #103, #56, #6 ) ;
#13 = ORIENTED_EDGE ( 'NONE', *, *, #158, .F. ) ;
#14 = CARTESIAN_POINT ( 'NONE',  ( 108.9851430021651000, 69.37802112337243400, -12.50000000000000400 ) ) ;
#15 = PRODUCT_DEFINITION ( 'Î´Öª', '', #108, #161 ) ;
#16 = DIRECTION ( 'NONE',  ( 0.0000000000000000000, 0.0000000000000000000, 1.000000000000000000 ) ) ;
#17 = ORIENTED_EDGE ( 'NONE', *, *, #177, .F. ) ;
#18 = CARTESIAN_POINT ( 'NONE',  ( 121.0926555349195200, 69.37802112337243400, 0.0000000000000000000 ) ) ;
#19 = DIRECTION ( 'NONE',  ( 0.0000000000000000000, 0.0000000000000000000, 1.000000000000000000 ) ) ;
#20 = DIRECTION ( 'NONE',  ( 1.000000000000000000, 0.0000000000000000000, 0.0000000000000000000 ) ) ;
#21 = AXIS2_PLACEMENT_3D ( 'NONE', #106, #57, #23 ) ;
#22 = DIRECTION ( 'NONE',  ( 0.0000000000000000000, 0.0000000000000000000, 1.000000000000000000 ) ) ;
#23 = DIRECTION ( 'NONE',  ( 1.000000000000000000, 0.0000000000000000000, 0.0000000000000000000 ) ) ;
#24 = ORIENTED_EDGE ( 'NONE', *, *, #172, .T. ) ;
#25 = DIRECTION ( 'NONE',  ( -1.000000000000000000, -0.0000000000000000000, -0.0000000000000000000 ) ) ;
#26 = VECTOR ( 'NONE', #25, 1000.000000000000000 ) ;
#27 = COLOUR_RGB ( '',1.000000000000000000, 1.000000000000000000, 1.000000000000000000 ) ;
#28 = PRODUCT_RELATED_PRODUCT_CATEGORY ( 'part', '', ( #140 ) ) ;
#29 = SHAPE_DEFINITION_REPRESENTATION ( #46, #36 ) ;
#30 = EDGE_LOOP ( 'NONE', ( #111, #77, #148, #170, #44 ) ) ;
#31 = CARTESIAN_POINT ( 'NONE',  ( 108.9851430021651000, 69.37802112337243400, 0.0000000000000000000 ) ) ;
#32 = CARTESIAN_POINT ( 'NONE',  ( 115.0926555349195200, 69.37802112337243400, 12.49999999999999600 ) ) ;
#33 = AXIS2_PLACEMENT_3D ( 'NONE', #160, #84, #45 ) ;
#34 = DIRECTION ( 'NONE',  ( -1.000000000000000000, -0.0000000000000000000, -0.0000000000000000000 ) ) ;
#35 = PRESENTATION_STYLE_ASSIGNMENT (( #149 ) ) ;
#36 = ADVANCED_BREP_SHAPE_REPRESENTATION ( '270020', ( #40, #21 ), #129 ) ;
#37 = VERTEX_POINT ( 'NONE', #139 ) ;
#38 =( GEOMETRIC_REPRESENTATION_CONTEXT ( 3 ) GLOBAL_UNCERTAINTY_ASSIGNED_CONTEXT ( ( #171 ) ) GLOBAL_UNIT_ASSIGNED_CONTEXT ( ( #120, #74, #8 ) ) REPRESENTATION_CONTEXT ( 'NONE', 'WORKASPACE' ) );
#39 = ORIENTED_EDGE ( 'NONE', *, *, #150, .T. ) ;
#40 = MANIFOLD_SOLID_BREP ( 'Ðý×ª1', #9 ) ;
#41 =( LENGTH_UNIT ( ) NAMED_UNIT ( * ) SI_UNIT ( .MILLI., .METRE. ) );
#42 = DIRECTION ( 'NONE',  ( -1.000000000000000000, -0.0000000000000000000, -0.0000000000000000000 ) ) ;
#43 = SPHERICAL_SURFACE ( 'NONE', #58, 40.00000000000000700 ) ;
#44 = ORIENTED_EDGE ( 'NONE', *, *, #172, .F. ) ;
#45 = DIRECTION ( 'NONE',  ( -1.000000000000000000, 0.0000000000000000000, 0.0000000000000000000 ) ) ;
#46 = PRODUCT_DEFINITION_SHAPE ( 'NONE', 'NONE',  #15 ) ;
#47 = SURFACE_STYLE_FILL_AREA ( #7 ) ;
#48 = ORIENTED_EDGE ( 'NONE', *, *, #164, .F. ) ;
#49 = CIRCLE ( 'NONE', #12, 40.00000000000000700 ) ;
#50 = AXIS2_PLACEMENT_3D ( 'NONE', #97, #112, #16 ) ;
#51 = EDGE_LOOP ( 'NONE', ( #104, #60, #73, #17, #95 ) ) ;
#52 = CARTESIAN_POINT ( 'NONE',  ( 123.0959451509928800, 69.37802112337243400, 12.50000000000000900 ) ) ;
#53 = CARTESIAN_POINT ( 'NONE',  ( 123.0959451509928800, 69.37802112337243400, -12.50000000000000900 ) ) ;
#54 = EDGE_CURVE ( 'NONE', #134, #37, #78, .T. ) ;
#55 = DIRECTION ( 'NONE',  ( 0.0000000000000000000, 0.0000000000000000000, 1.000000000000000000 ) ) ;
#56 = DIRECTION ( 'NONE',  ( 0.0000000000000000000, -1.224646799147353200E-016, 1.000000000000000000 ) ) ;
#57 = DIRECTION ( 'NONE',  ( 0.0000000000000000000, 0.0000000000000000000, 1.000000000000000000 ) ) ;
#58 = AXIS2_PLACEMENT_3D ( 'NONE', #144, #85, #3 ) ;
#59 = CIRCLE ( 'NONE', #182, 12.49999999999999600 ) ;
#60 = ORIENTED_EDGE ( 'NONE', *, *, #54, .T. ) ;
#61 = STYLED_ITEM ( 'NONE', ( #162 ), #40 ) ;
#62 =( NAMED_UNIT ( * ) SI_UNIT ( $, .STERADIAN. ) SOLID_ANGLE_UNIT ( ) );
#63 = MECHANICAL_DESIGN_GEOMETRIC_PRESENTATION_REPRESENTATION (  '', ( #61 ), #122 ) ;
#64 = CIRCLE ( 'NONE', #89, 12.50000000000001100 ) ;
#65 = AXIS2_PLACEMENT_3D ( 'NONE', #31, #94, #174 ) ;
#66 = SURFACE_STYLE_USAGE ( .BOTH. , #156 ) ;
#67 = FACE_OUTER_BOUND ( 'NONE', #5, .T. ) ;
#68 =( NAMED_UNIT ( * ) SI_UNIT ( $, .STERADIAN. ) SOLID_ANGLE_UNIT ( ) );
#69 = AXIS2_PLACEMENT_3D ( 'NONE', #1, #100, #132 ) ;
#70 = CARTESIAN_POINT ( 'NONE',  ( 123.0959451509928800, 56.87802112337241300, 0.0000000000000000000 ) ) ;
#71 = CARTESIAN_POINT ( 'NONE',  ( 115.0926555349195200, 69.37802112337243400, 0.0000000000000000000 ) ) ;
#72 = SPHERICAL_SURFACE ( 'NONE', #69, 40.00000000000000700 ) ;
#73 = ORIENTED_EDGE ( 'NONE', *, *, #153, .F. ) ;
#74 =( NAMED_UNIT ( * ) PLANE_ANGLE_UNIT ( ) SI_UNIT ( $, .RADIAN. ) );
#75 = APPLICATION_CONTEXT ( 'automotive_design' ) ;
#76 = CIRCLE ( 'NONE', #50, 12.50000000000001100 ) ;
#77 = ORIENTED_EDGE ( 'NONE', *, *, #119, .T. ) ;
#78 = LINE ( 'NONE', #14, #101 ) ;
#79 = VERTEX_POINT ( 'NONE', #52 ) ;
#80 = EDGE_CURVE ( 'NONE', #125, #134, #131, .T. ) ;
#81 = ADVANCED_FACE ( 'NONE', ( #175 ), #186, .F. ) ;
#82 = EDGE_LOOP ( 'NONE', ( #11, #24 ) ) ;
#83 = VERTEX_POINT ( 'NONE', #18 ) ;
#84 = DIRECTION ( 'NONE',  ( 0.0000000000000000000, 0.0000000000000000000, -1.000000000000000000 ) ) ;
#85 = DIRECTION ( 'NONE',  ( 0.0000000000000000000, 0.0000000000000000000, 1.000000000000000000 ) ) ;
#86 = UNCERTAINTY_MEASURE_WITH_UNIT (LENGTH_MEASURE( 1.000000000000000100E-005 ), #41, 'distance_accuracy_value', 'NONE');
#87 = DIRECTION ( 'NONE',  ( 0.0000000000000000000, 0.0000000000000000000, 1.000000000000000000 ) ) ;
#88 = COLOUR_RGB ( '',1.000000000000000000, 1.000000000000000000, 1.000000000000000000 ) ;
#89 = AXIS2_PLACEMENT_3D ( 'NONE', #4, #146, #55 ) ;
#90 =( LENGTH_UNIT ( ) NAMED_UNIT ( * ) SI_UNIT ( .MILLI., .METRE. ) );
#91 = FACE_OUTER_BOUND ( 'NONE', #121, .T. ) ;
#92 = CIRCLE ( 'NONE', #98, 12.49999999999999600 ) ;
#93 = ADVANCED_FACE ( 'NONE', ( #91 ), #43, .F. ) ;
#94 = DIRECTION ( 'NONE',  ( -1.000000000000000000, -0.0000000000000000000, -0.0000000000000000000 ) ) ;
#95 = ORIENTED_EDGE ( 'NONE', *, *, #2, .T. ) ;
#96 = AXIS2_PLACEMENT_3D ( 'NONE', #102, #42, #22 ) ;
#97 = CARTESIAN_POINT ( 'NONE',  ( 123.0959451509928800, 69.37802112337243400, 0.0000000000000000000 ) ) ;
#98 = AXIS2_PLACEMENT_3D ( 'NONE', #169, #34, #87 ) ;
#99 = CARTESIAN_POINT ( 'NONE',  ( 108.9851430021651000, 69.37802112337243400, 0.0000000000000000000 ) ) ;
#100 = DIRECTION ( 'NONE',  ( 0.0000000000000000000, 0.0000000000000000000, 1.000000000000000000 ) ) ;
#101 = VECTOR ( 'NONE', #126, 1000.000000000000000 ) ;
#102 = CARTESIAN_POINT ( 'NONE',  ( 123.0959451509928800, 69.37802112337243400, 0.0000000000000000000 ) ) ;
#103 = CARTESIAN_POINT ( 'NONE',  ( 161.0926555349195200, 69.37802112337243400, 0.0000000000000000000 ) ) ;
#104 = ORIENTED_EDGE ( 'NONE', *, *, #80, .T. ) ;
#105 = DIRECTION ( 'NONE',  ( 0.0000000000000000000, 0.0000000000000000000, 1.000000000000000000 ) ) ;
#106 = CARTESIAN_POINT ( 'NONE',  ( 0.0000000000000000000, 0.0000000000000000000, 0.0000000000000000000 ) ) ;
#107 = FILL_AREA_STYLE_COLOUR ( '', #88 ) ;
#108 = PRODUCT_DEFINITION_FORMATION_WITH_SPECIFIED_SOURCE ( 'ÈÎºÎ', '', #140, .NOT_KNOWN. ) ;
#109 = ORIENTED_EDGE ( 'NONE', *, *, #2, .F. ) ;
#110 = AXIS2_PLACEMENT_3D ( 'NONE', #99, #130, #105 ) ;
#111 = ORIENTED_EDGE ( 'NONE', *, *, #54, .F. ) ;
#112 = DIRECTION ( 'NONE',  ( -1.000000000000000000, -0.0000000000000000000, -0.0000000000000000000 ) ) ;
#113 = ORIENTED_EDGE ( 'NONE', *, *, #150, .F. ) ;
#114 = CARTESIAN_POINT ( 'NONE',  ( 123.0959451509928800, 81.87802112337246300, 1.530808498934194300E-015 ) ) ;
#115 = FACE_OUTER_BOUND ( 'NONE', #30, .T. ) ;
#116 = VERTEX_POINT ( 'NONE', #70 ) ;
#117 = APPLICATION_CONTEXT ( 'automotive_design' ) ;
#118 = APPLICATION_PROTOCOL_DEFINITION ( 'draft international standard', 'automotive_design', 1998, #117 ) ;
#119 = EDGE_CURVE ( 'NONE', #134, #116, #137, .T. ) ;
#120 =( LENGTH_UNIT ( ) NAMED_UNIT ( * ) SI_UNIT ( .MILLI., .METRE. ) );
#121 = EDGE_LOOP ( 'NONE', ( #173, #39, #48, #151 ) ) ;
#122 =( GEOMETRIC_REPRESENTATION_CONTEXT ( 3 ) GLOBAL_UNCERTAINTY_ASSIGNED_CONTEXT ( ( #86 ) ) GLOBAL_UNIT_ASSIGNED_CONTEXT ( ( #41, #142, #68 ) ) REPRESENTATION_CONTEXT ( 'NONE', 'WORKASPACE' ) );
#123 = FACE_OUTER_BOUND ( 'NONE', #51, .T. ) ;
#124 = FILL_AREA_STYLE_COLOUR ( '', #27 ) ;
#125 = VERTEX_POINT ( 'NONE', #114 ) ;
#126 = DIRECTION ( 'NONE',  ( -1.000000000000000000, -0.0000000000000000000, -0.0000000000000000000 ) ) ;
#127 = CYLINDRICAL_SURFACE ( 'NONE', #65, 12.50000000000000400 ) ;
#128 = FILL_AREA_STYLE ('',( #124 ) ) ;
#129 =( GEOMETRIC_REPRESENTATION_CONTEXT ( 3 ) GLOBAL_UNCERTAINTY_ASSIGNED_CONTEXT ( ( #154 ) ) GLOBAL_UNIT_ASSIGNED_CONTEXT ( ( #90, #165, #62 ) ) REPRESENTATION_CONTEXT ( 'NONE', 'WORKASPACE' ) );
#130 = DIRECTION ( 'NONE',  ( -1.000000000000000000, -0.0000000000000000000, -0.0000000000000000000 ) ) ;
#131 = CIRCLE ( 'NONE', #96, 12.50000000000001100 ) ;
#132 = DIRECTION ( 'NONE',  ( 0.0000000000000000000, -1.000000000000000000, 0.0000000000000000000 ) ) ;
#133 = SURFACE_STYLE_FILL_AREA ( #128 ) ;
#134 = VERTEX_POINT ( 'NONE', #53 ) ;
#135 = CYLINDRICAL_SURFACE ( 'NONE', #110, 12.50000000000000400 ) ;
#136 = PRESENTATION_LAYER_ASSIGNMENT (  '', '', ( #61 ) ) ;
#137 = CIRCLE ( 'NONE', #185, 12.50000000000001100 ) ;
#138 = PRESENTATION_LAYER_ASSIGNMENT (  '', '', ( #141 ) ) ;
#139 = CARTESIAN_POINT ( 'NONE',  ( 115.0926555349195200, 69.37802112337243400, -12.49999999999999600 ) ) ;
#140 = PRODUCT ( '270020', '270020', '', ( #179 ) ) ;
#141 = STYLED_ITEM ( 'NONE', ( #35 ), #36 ) ;
#142 =( NAMED_UNIT ( * ) PLANE_ANGLE_UNIT ( ) SI_UNIT ( $, .RADIAN. ) );
#143 = DIRECTION ( 'NONE',  ( 0.0000000000000000000, 0.0000000000000000000, 1.000000000000000000 ) ) ;
#144 = CARTESIAN_POINT ( 'NONE',  ( 161.0926555349195200, 69.37802112337243400, 0.0000000000000000000 ) ) ;
#145 = AXIS2_PLACEMENT_3D ( 'NONE', #71, #20, #157 ) ;
#146 = DIRECTION ( 'NONE',  ( -1.000000000000000000, -0.0000000000000000000, -0.0000000000000000000 ) ) ;
#147 = CIRCLE ( 'NONE', #33, 40.00000000000000700 ) ;
#148 = ORIENTED_EDGE ( 'NONE', *, *, #158, .T. ) ;
#149 = SURFACE_STYLE_USAGE ( .BOTH. , #167 ) ;
#150 = EDGE_CURVE ( 'NONE', #125, #83, #49, .T. ) ;
#151 = ORIENTED_EDGE ( 'NONE', *, *, #119, .F. ) ;
#152 = ORIENTED_EDGE ( 'NONE', *, *, #164, .T. ) ;
#153 = EDGE_CURVE ( 'NONE', #166, #37, #59, .T. ) ;
#154 = UNCERTAINTY_MEASURE_WITH_UNIT (LENGTH_MEASURE( 1.000000000000000100E-005 ), #90, 'distance_accuracy_value', 'NONE');
#155 = ADVANCED_FACE ( 'NONE', ( #67 ), #72, .F. ) ;
#156 = SURFACE_SIDE_STYLE ('',( #133 ) ) ;
#157 = DIRECTION ( 'NONE',  ( 0.0000000000000000000, 0.0000000000000000000, -1.000000000000000000 ) ) ;
#158 = EDGE_CURVE ( 'NONE', #116, #79, #64, .T. ) ;
#159 = CARTESIAN_POINT ( 'NONE',  ( 123.0959451509928800, 69.37802112337243400, 0.0000000000000000000 ) ) ;
#160 = CARTESIAN_POINT ( 'NONE',  ( 161.0926555349195200, 69.37802112337243400, 0.0000000000000000000 ) ) ;
#161 = PRODUCT_DEFINITION_CONTEXT ( 'detailed design', #117, 'design' ) ;
#162 = PRESENTATION_STYLE_ASSIGNMENT (( #66 ) ) ;
#163 = CARTESIAN_POINT ( 'NONE',  ( 115.0926555349195200, 69.37802112337243400, 0.0000000000000000000 ) ) ;
#164 = EDGE_CURVE ( 'NONE', #116, #83, #147, .T. ) ;
#165 =( NAMED_UNIT ( * ) PLANE_ANGLE_UNIT ( ) SI_UNIT ( $, .RADIAN. ) );
#166 = VERTEX_POINT ( 'NONE', #32 ) ;
#167 = SURFACE_SIDE_STYLE ('',( #47 ) ) ;
#168 = CARTESIAN_POINT ( 'NONE',  ( 108.9851430021651000, 69.37802112337243400, 12.50000000000000400 ) ) ;
#169 = CARTESIAN_POINT ( 'NONE',  ( 115.0926555349195200, 69.37802112337243400, 0.0000000000000000000 ) ) ;
#170 = ORIENTED_EDGE ( 'NONE', *, *, #177, .T. ) ;
#171 = UNCERTAINTY_MEASURE_WITH_UNIT (LENGTH_MEASURE( 1.000000000000000100E-005 ), #120, 'distance_accuracy_value', 'NONE');
#172 = EDGE_CURVE ( 'NONE', #37, #166, #92, .T. ) ;
#173 = ORIENTED_EDGE ( 'NONE', *, *, #80, .F. ) ;
#174 = DIRECTION ( 'NONE',  ( 0.0000000000000000000, 0.0000000000000000000, 1.000000000000000000 ) ) ;
#175 = FACE_OUTER_BOUND ( 'NONE', #82, .T. ) ;
#176 = DIRECTION ( 'NONE',  ( -1.000000000000000000, -0.0000000000000000000, -0.0000000000000000000 ) ) ;
#177 = EDGE_CURVE ( 'NONE', #79, #166, #184, .T. ) ;
#178 = DIRECTION ( 'NONE',  ( -1.000000000000000000, -0.0000000000000000000, -0.0000000000000000000 ) ) ;
#179 = PRODUCT_CONTEXT ( 'NONE', #75, 'mechanical' ) ;
#180 = APPLICATION_PROTOCOL_DEFINITION ( 'draft international standard', 'automotive_design', 1998, #75 ) ;
#181 = MECHANICAL_DESIGN_GEOMETRIC_PRESENTATION_REPRESENTATION (  '', ( #141 ), #38 ) ;
#182 = AXIS2_PLACEMENT_3D ( 'NONE', #163, #176, #19 ) ;
#183 = ADVANCED_FACE ( 'NONE', ( #115 ), #135, .T. ) ;
#184 = LINE ( 'NONE', #168, #26 ) ;
#185 = AXIS2_PLACEMENT_3D ( 'NONE', #159, #178, #143 ) ;
#186 = PLANE ( 'NONE',  #145 ) ;
ENDSEC;
END-ISO-10303-21;
