ISO-10303-21;
HEADER;
FILE_DESCRIPTION (( 'STEP AP203' ),
    '1' );
FILE_NAME ('270649.step',
    '2024-12-24T02:22:25',
    ( '' ),
    ( '' ),
    'SwSTEP 2.0',
    'SolidWorks 2020',
    '' );
FILE_SCHEMA (( 'CONFIG_CONTROL_DESIGN' ));
ENDSEC;

DATA;
#1 = ORIENTED_EDGE ( 'NONE', *, *, #25, .T. ) ;
#2 = EDGE_LOOP ( 'NONE', ( #227, #197, #19, #187, #116 ) ) ;
#3 = DIRECTION ( 'NONE',  ( 0.000000000000000000, 0.000000000000000000, 1.000000000000000000 ) ) ;
#4 = CIRCLE ( 'NONE', #28, 599.9999999999998863 ) ;
#5 = VERTEX_POINT ( 'NONE', #161 ) ;
#6 = LINE ( 'NONE', #10, #158 ) ;
#7 = APPROVAL ( #41, 'Î´Ö¸¶¨' ) ;
#8 = SPHERICAL_SURFACE ( 'NONE', #259, 599.9999999999998863 ) ;
#9 = EDGE_CURVE ( 'NONE', #31, #226, #138, .T. ) ;
#10 = CARTESIAN_POINT ( 'NONE',  ( 10.00000000000000178, -12.50000000000000000, 10.00000000000000000 ) ) ;
#11 = CARTESIAN_POINT ( 'NONE',  ( 10.00000000000000178, 0.000000000000000000, 599.0000000000000000 ) ) ;
#12 = CC_DESIGN_DATE_AND_TIME_ASSIGNMENT ( #214, #200, ( #156 ) ) ;
#13 = CARTESIAN_POINT ( 'NONE',  ( -9.999999999999998224, 12.49999999999999645, 10.00000000000000000 ) ) ;
#14 = PLANE ( 'NONE',  #184 ) ;
#15 = LOCAL_TIME ( 10, 22, 25.00000000000000000, #63 ) ;
#16 = DATE_AND_TIME ( #102, #123 ) ;
#17 = DIRECTION ( 'NONE',  ( 0.000000000000000000, 0.000000000000000000, -1.000000000000000000 ) ) ;
#18 = APPLICATION_CONTEXT ( 'configuration controlled 3d designs of mechanical parts and assemblies' ) ;
#19 = ORIENTED_EDGE ( 'NONE', *, *, #9, .T. ) ;
#20 = CARTESIAN_POINT ( 'NONE',  ( -9.999999999999998224, 12.49999999999999645, -10.00000000000000000 ) ) ;
#21 = PERSON_AND_ORGANIZATION ( #66, #164 ) ;
#22 = AXIS2_PLACEMENT_3D ( 'NONE', #245, #207, #94 ) ;
#23 = CC_DESIGN_SECURITY_CLASSIFICATION ( #156, ( #46 ) ) ;
#24 = PRODUCT_DEFINITION ( 'Î´Öª', '', #46, #176 ) ;
#25 = EDGE_CURVE ( 'NONE', #152, #159, #131, .T. ) ;
#26 = AXIS2_PLACEMENT_3D ( 'NONE', #162, #266, #246 ) ;
#27 = ADVANCED_FACE ( 'NONE', ( #49 ), #230, .F. ) ;
#28 = AXIS2_PLACEMENT_3D ( 'NONE', #211, #77, #57 ) ;
#29 = ORIENTED_EDGE ( 'NONE', *, *, #64, .F. ) ;
#30 = CARTESIAN_POINT ( 'NONE',  ( -9.999999999999998224, -12.50000000000000355, 10.00000000000000000 ) ) ;
#31 = VERTEX_POINT ( 'NONE', #74 ) ;
#32 = FACE_OUTER_BOUND ( 'NONE', #151, .T. ) ;
#33 = AXIS2_PLACEMENT_3D ( 'NONE', #165, #134, #55 ) ;
#34 = DIRECTION ( 'NONE',  ( 0.000000000000000000, -0.000000000000000000, 1.000000000000000000 ) ) ;
#35 = CARTESIAN_POINT ( 'NONE',  ( 15.00000000000007638, 0.000000000000000000, 599.0000000000000000 ) ) ;
#36 = SHAPE_DEFINITION_REPRESENTATION ( #130, #181 ) ;
#37 = DIRECTION ( 'NONE',  ( 1.000000000000000000, 1.734723475976807094E-16, 0.000000000000000000 ) ) ;
#38 = PERSON_AND_ORGANIZATION_ROLE ( 'classification_officer' ) ;
#39 = CARTESIAN_POINT ( 'NONE',  ( 10.00000000000000178, 12.50000000000000000, 10.00000000000000000 ) ) ;
#40 = VERTEX_POINT ( 'NONE', #169 ) ;
#41 = APPROVAL_STATUS ( 'not_yet_approved' ) ;
#42 =( NAMED_UNIT ( * ) SI_UNIT ( $, .STERADIAN. ) SOLID_ANGLE_UNIT ( ) );
#43 = PERSON_AND_ORGANIZATION_ROLE ( 'creator' ) ;
#44 = UNCERTAINTY_MEASURE_WITH_UNIT (LENGTH_MEASURE( 1.000000000000000082E-05 ), #121, 'distance_accuracy_value', 'NONE');
#45 = PERSON_AND_ORGANIZATION ( #66, #164 ) ;
#46 = PRODUCT_DEFINITION_FORMATION_WITH_SPECIFIED_SOURCE ( 'ÈÎºÎ', '', #155, .NOT_KNOWN. ) ;
#47 = EDGE_CURVE ( 'NONE', #93, #90, #51, .T. ) ;
#48 = ORIENTED_EDGE ( 'NONE', *, *, #112, .F. ) ;
#49 = FACE_OUTER_BOUND ( 'NONE', #225, .T. ) ;
#50 = ORIENTED_EDGE ( 'NONE', *, *, #72, .F. ) ;
#51 = LINE ( 'NONE', #30, #53 ) ;
#52 = SPHERICAL_SURFACE ( 'NONE', #100, 599.9999999999998863 ) ;
#53 = VECTOR ( 'NONE', #271, 1000.000000000000000 ) ;
#54 = CARTESIAN_POINT ( 'NONE',  ( -9.999999999999998224, 0.000000000000000000, 599.0000000000000000 ) ) ;
#55 = DIRECTION ( 'NONE',  ( -1.000000000000000000, -1.734723475976807094E-16, 0.000000000000000000 ) ) ;
#56 = COORDINATED_UNIVERSAL_TIME_OFFSET ( 8, 0, .AHEAD. ) ;
#57 = DIRECTION ( 'NONE',  ( 0.000000000000000000, 0.000000000000000000, -1.000000000000000000 ) ) ;
#58 = COORDINATED_UNIVERSAL_TIME_OFFSET ( 8, 0, .AHEAD. ) ;
#59 = DIRECTION ( 'NONE',  ( -1.000000000000000000, 0.000000000000000000, 1.850371707708594563E-16 ) ) ;
#60 = ORIENTED_EDGE ( 'NONE', *, *, #222, .F. ) ;
#61 = APPLICATION_PROTOCOL_DEFINITION ( 'international standard', 'config_control_design', 1994, #183 ) ;
#62 = DIRECTION ( 'NONE',  ( 1.000000000000000000, 0.000000000000000000, 0.000000000000000000 ) ) ;
#63 = COORDINATED_UNIVERSAL_TIME_OFFSET ( 8, 0, .AHEAD. ) ;
#64 = EDGE_CURVE ( 'NONE', #226, #40, #6, .T. ) ;
#65 = EDGE_CURVE ( 'NONE', #90, #40, #228, .T. ) ;
#66 = PERSON ( 'Î´Ö¸¶¨', 'Î´Ö¸¶¨', 'Î´Ö¸¶¨', ('Î´Ö¸¶¨'), ('Î´Ö¸¶¨'), ('Î´Ö¸¶¨') ) ;
#67 =( GEOMETRIC_REPRESENTATION_CONTEXT ( 3 ) GLOBAL_UNCERTAINTY_ASSIGNED_CONTEXT ( ( #44 ) ) GLOBAL_UNIT_ASSIGNED_CONTEXT ( ( #121, #253, #42 ) ) REPRESENTATION_CONTEXT ( 'NONE', 'WORKASPACE' ) );
#68 = ADVANCED_FACE ( 'NONE', ( #95 ), #79, .F. ) ;
#69 = ADVANCED_FACE ( 'NONE', ( #32 ), #52, .F. ) ;
#70 = ORIENTED_EDGE ( 'NONE', *, *, #182, .T. ) ;
#71 = ORIENTED_EDGE ( 'NONE', *, *, #163, .T. ) ;
#72 = EDGE_CURVE ( 'NONE', #40, #133, #189, .T. ) ;
#73 = CARTESIAN_POINT ( 'NONE',  ( -9.999999999999998224, -12.50000000000000355, -10.00000000000000000 ) ) ;
#74 = CARTESIAN_POINT ( 'NONE',  ( 10.00000000000000178, 0.000000000000000000, -0.9791663049642518324 ) ) ;
#75 = LINE ( 'NONE', #103, #263 ) ;
#76 = ORIENTED_EDGE ( 'NONE', *, *, #106, .T. ) ;
#77 = DIRECTION ( 'NONE',  ( 0.000000000000000000, -1.000000000000000000, 0.000000000000000000 ) ) ;
#78 = LINE ( 'NONE', #150, #129 ) ;
#79 = PLANE ( 'NONE',  #256 ) ;
#80 = APPROVAL_DATE_TIME ( #127, #7 ) ;
#81 = FACE_OUTER_BOUND ( 'NONE', #262, .T. ) ;
#82 = MECHANICAL_CONTEXT ( 'NONE', #18, 'mechanical' ) ;
#83 = CC_DESIGN_PERSON_AND_ORGANIZATION_ASSIGNMENT ( #233, #38, ( #156 ) ) ;
#84 = DIRECTION ( 'NONE',  ( -0.000000000000000000, -0.000000000000000000, -1.000000000000000000 ) ) ;
#85 = DATE_AND_TIME ( #238, #174 ) ;
#86 = APPLICATION_PROTOCOL_DEFINITION ( 'international standard', 'config_control_design', 1994, #18 ) ;
#87 = VECTOR ( 'NONE', #232, 1000.000000000000000 ) ;
#88 = CC_DESIGN_APPROVAL ( #201, ( #156 ) ) ;
#89 = ADVANCED_FACE ( 'NONE', ( #119 ), #265, .F. ) ;
#90 = VERTEX_POINT ( 'NONE', #73 ) ;
#91 = ORIENTED_EDGE ( 'NONE', *, *, #182, .F. ) ;
#92 = CIRCLE ( 'NONE', #149, 599.4789404140898341 ) ;
#93 = VERTEX_POINT ( 'NONE', #251 ) ;
#94 = DIRECTION ( 'NONE',  ( 0.000000000000000000, 0.000000000000000000, 1.000000000000000000 ) ) ;
#95 = FACE_OUTER_BOUND ( 'NONE', #2, .T. ) ;
#96 = PLANE ( 'NONE',  #241 ) ;
#97 = ORIENTED_EDGE ( 'NONE', *, *, #47, .T. ) ;
#98 = CARTESIAN_POINT ( 'NONE',  ( 10.00000000000000178, 12.50000000000000000, -10.00000000000000000 ) ) ;
#99 = PERSON_AND_ORGANIZATION_ROLE ( 'design_owner' ) ;
#100 = AXIS2_PLACEMENT_3D ( 'NONE', #35, #117, #188 ) ;
#101 = DIRECTION ( 'NONE',  ( 0.000000000000000000, 0.000000000000000000, -1.000000000000000000 ) ) ;
#102 = CALENDAR_DATE ( 2024, 24, 12 ) ;
#103 = CARTESIAN_POINT ( 'NONE',  ( 10.00000000000000178, 12.50000000000000000, -10.00000000000000000 ) ) ;
#104 = DATE_AND_TIME ( #276, #220 ) ;
#105 = CARTESIAN_POINT ( 'NONE',  ( -9.999999999999998224, -12.50000000000000355, 10.00000000000000000 ) ) ;
#106 = EDGE_CURVE ( 'NONE', #5, #31, #4, .T. ) ;
#107 = CARTESIAN_POINT ( 'NONE',  ( 0.000000000000000000, 0.000000000000000000, 0.000000000000000000 ) ) ;
#108 = VECTOR ( 'NONE', #84, 1000.000000000000000 ) ;
#109 = COORDINATED_UNIVERSAL_TIME_OFFSET ( 8, 0, .AHEAD. ) ;
#110 = CIRCLE ( 'NONE', #202, 599.9791663049641102 ) ;
#111 = APPROVAL_PERSON_ORGANIZATION ( #126, #201, #252 ) ;
#112 = EDGE_CURVE ( 'NONE', #152, #147, #209, .T. ) ;
#113 = CC_DESIGN_APPROVAL ( #7, ( #46 ) ) ;
#114 = ORIENTED_EDGE ( 'NONE', *, *, #178, .F. ) ;
#115 = CARTESIAN_POINT ( 'NONE',  ( 10.00000000000000178, -12.50000000000000000, -10.00000000000000000 ) ) ;
#116 = ORIENTED_EDGE ( 'NONE', *, *, #72, .T. ) ;
#117 = DIRECTION ( 'NONE',  ( 0.000000000000000000, 1.000000000000000000, -0.000000000000000000 ) ) ;
#118 = AXIS2_PLACEMENT_3D ( 'NONE', #236, #143, #210 ) ;
#119 = FACE_OUTER_BOUND ( 'NONE', #194, .T. ) ;
#120 = DIRECTION ( 'NONE',  ( 1.000000000000000000, 1.734723475976807094E-16, -0.000000000000000000 ) ) ;
#121 =( LENGTH_UNIT ( ) NAMED_UNIT ( * ) SI_UNIT ( .MILLI., .METRE. ) );
#122 = PERSON_AND_ORGANIZATION ( #66, #164 ) ;
#123 = LOCAL_TIME ( 10, 22, 25.00000000000000000, #175 ) ;
#124 = DIRECTION ( 'NONE',  ( 0.000000000000000000, 0.000000000000000000, 1.000000000000000000 ) ) ;
#125 = ORIENTED_EDGE ( 'NONE', *, *, #112, .T. ) ;
#126 = PERSON_AND_ORGANIZATION ( #66, #164 ) ;
#127 = DATE_AND_TIME ( #154, #15 ) ;
#128 = APPROVAL_ROLE ( '' ) ;
#129 = VECTOR ( 'NONE', #171, 1000.000000000000000 ) ;
#130 = PRODUCT_DEFINITION_SHAPE ( 'NONE', 'NONE',  #24 ) ;
#131 = CIRCLE ( 'NONE', #26, 599.8697775350912025 ) ;
#132 = APPROVAL ( #250, 'Î´Ö¸¶¨' ) ;
#133 = VERTEX_POINT ( 'NONE', #98 ) ;
#134 = DIRECTION ( 'NONE',  ( -1.734723475976807094E-16, 1.000000000000000000, 0.000000000000000000 ) ) ;
#135 = ORIENTED_EDGE ( 'NONE', *, *, #163, .F. ) ;
#136 = DIRECTION ( 'NONE',  ( -0.000000000000000000, -0.000000000000000000, -1.000000000000000000 ) ) ;
#137 = CARTESIAN_POINT ( 'NONE',  ( 10.00000000000000178, -12.50000000000000000, -10.00000000000000000 ) ) ;
#138 = CIRCLE ( 'NONE', #22, 599.9791663049641102 ) ;
#139 = CC_DESIGN_PERSON_AND_ORGANIZATION_ASSIGNMENT ( #170, #192, ( #46 ) ) ;
#140 = ADVANCED_FACE ( 'NONE', ( #144 ), #8, .F. ) ;
#141 = APPROVAL_ROLE ( '' ) ;
#142 = PRODUCT_RELATED_PRODUCT_CATEGORY ( 'detail', '', ( #155 ) ) ;
#143 = DIRECTION ( 'NONE',  ( -1.734723475976807094E-16, 1.000000000000000000, 0.000000000000000000 ) ) ;
#144 = FACE_OUTER_BOUND ( 'NONE', #204, .T. ) ;
#145 = CALENDAR_DATE ( 2024, 24, 12 ) ;
#146 = CARTESIAN_POINT ( 'NONE',  ( 15.00000000000007638, 0.000000000000000000, 599.0000000000000000 ) ) ;
#147 = VERTEX_POINT ( 'NONE', #20 ) ;
#148 = APPROVAL_DATE_TIME ( #85, #132 ) ;
#149 = AXIS2_PLACEMENT_3D ( 'NONE', #54, #168, #17 ) ;
#150 = CARTESIAN_POINT ( 'NONE',  ( -9.999999999999998224, -12.50000000000000355, -10.00000000000000000 ) ) ;
#151 = EDGE_LOOP ( 'NONE', ( #243, #76, #114, #255 ) ) ;
#152 = VERTEX_POINT ( 'NONE', #235 ) ;
#153 = PERSON_AND_ORGANIZATION ( #66, #164 ) ;
#154 = CALENDAR_DATE ( 2024, 24, 12 ) ;
#155 = PRODUCT ( '270649', '270649', '', ( #82 ) ) ;
#156 = SECURITY_CLASSIFICATION ( '', '', #218 ) ;
#157 = EDGE_CURVE ( 'NONE', #5, #152, #237, .T. ) ;
#158 = VECTOR ( 'NONE', #136, 1000.000000000000000 ) ;
#159 = VERTEX_POINT ( 'NONE', #196 ) ;
#160 = ORIENTED_EDGE ( 'NONE', *, *, #240, .T. ) ;
#161 = CARTESIAN_POINT ( 'NONE',  ( -10.00000000000000000, 0.000000000000000000, -0.4789404140898012585 ) ) ;
#162 = CARTESIAN_POINT ( 'NONE',  ( 15.00000000000007461, 12.50000000000000178, 599.0000000000000000 ) ) ;
#163 = EDGE_CURVE ( 'NONE', #226, #93, #248, .T. ) ;
#164 = ORGANIZATION ( 'Î´Ö¸¶¨', 'Î´Ö¸¶¨', '' ) ;
#165 = CARTESIAN_POINT ( 'NONE',  ( 10.00000000000000178, -12.50000000000000000, 10.00000000000000000 ) ) ;
#166 = APPROVAL_DATE_TIME ( #104, #201 ) ;
#167 = AXIS2_PLACEMENT_3D ( 'NONE', #107, #258, #272 ) ;
#168 = DIRECTION ( 'NONE',  ( 1.000000000000000000, 0.000000000000000000, 0.000000000000000000 ) ) ;
#169 = CARTESIAN_POINT ( 'NONE',  ( 10.00000000000000178, -12.50000000000000000, -10.00000000000000000 ) ) ;
#170 = PERSON_AND_ORGANIZATION ( #66, #164 ) ;
#171 = DIRECTION ( 'NONE',  ( -0.000000000000000000, -1.000000000000000000, -0.000000000000000000 ) ) ;
#172 = ORIENTED_EDGE ( 'NONE', *, *, #65, .T. ) ;
#173 = FACE_OUTER_BOUND ( 'NONE', #244, .T. ) ;
#174 = LOCAL_TIME ( 10, 22, 25.00000000000000000, #58 ) ;
#175 = COORDINATED_UNIVERSAL_TIME_OFFSET ( 8, 0, .AHEAD. ) ;
#176 = DESIGN_CONTEXT ( 'detailed design', #183, 'design' ) ;
#177 = ORIENTED_EDGE ( 'NONE', *, *, #47, .F. ) ;
#178 = EDGE_CURVE ( 'NONE', #159, #31, #110, .T. ) ;
#179 = APPROVAL_PERSON_ORGANIZATION ( #122, #132, #128 ) ;
#180 = ORIENTED_EDGE ( 'NONE', *, *, #106, .F. ) ;
#181 = ADVANCED_BREP_SHAPE_REPRESENTATION ( '270649', ( #203, #167 ), #67 ) ;
#182 = EDGE_CURVE ( 'NONE', #93, #5, #92, .T. ) ;
#183 = APPLICATION_CONTEXT ( 'configuration controlled 3d designs of mechanical parts and assemblies' ) ;
#184 = AXIS2_PLACEMENT_3D ( 'NONE', #105, #62, #101 ) ;
#185 = ORIENTED_EDGE ( 'NONE', *, *, #9, .F. ) ;
#186 = CARTESIAN_POINT ( 'NONE',  ( 10.00000000000000178, -12.50000000000000000, 10.00000000000000000 ) ) ;
#187 = ORIENTED_EDGE ( 'NONE', *, *, #64, .T. ) ;
#188 = DIRECTION ( 'NONE',  ( -1.000000000000000000, 0.000000000000000000, 1.850371707708594563E-16 ) ) ;
#189 = LINE ( 'NONE', #137, #87 ) ;
#190 = CARTESIAN_POINT ( 'NONE',  ( 10.00000000000000178, 12.50000000000000000, 10.00000000000000000 ) ) ;
#191 = CARTESIAN_POINT ( 'NONE',  ( 0.000000000000000000, 0.000000000000000000, -10.00000000000000000 ) ) ;
#192 = PERSON_AND_ORGANIZATION_ROLE ( 'creator' ) ;
#193 = DIRECTION ( 'NONE',  ( -1.000000000000000000, -1.734723475976807094E-16, 0.000000000000000000 ) ) ;
#194 = EDGE_LOOP ( 'NONE', ( #270, #60, #50, #217 ) ) ;
#195 = DATE_TIME_ROLE ( 'creation_date' ) ;
#196 = CARTESIAN_POINT ( 'NONE',  ( 10.00000000000000178, 12.50000000000000000, -0.8489393172249615205 ) ) ;
#197 = ORIENTED_EDGE ( 'NONE', *, *, #178, .T. ) ;
#198 = APPROVAL_STATUS ( 'not_yet_approved' ) ;
#199 = AXIS2_PLACEMENT_3D ( 'NONE', #254, #208, #231 ) ;
#200 = DATE_TIME_ROLE ( 'classification_date' ) ;
#201 = APPROVAL ( #198, 'Î´Ö¸¶¨' ) ;
#202 = AXIS2_PLACEMENT_3D ( 'NONE', #11, #247, #124 ) ;
#203 = MANIFOLD_SOLID_BREP ( 'ÇÐ³ý-Ðý×ª8', #269 ) ;
#204 = EDGE_LOOP ( 'NONE', ( #180, #91, #135, #185 ) ) ;
#205 = DIRECTION ( 'NONE',  ( -1.000000000000000000, 0.000000000000000000, 0.000000000000000000 ) ) ;
#206 = ORIENTED_EDGE ( 'NONE', *, *, #260, .T. ) ;
#207 = DIRECTION ( 'NONE',  ( -1.000000000000000000, 0.000000000000000000, 0.000000000000000000 ) ) ;
#208 = DIRECTION ( 'NONE',  ( 1.000000000000000000, 0.000000000000000000, 0.000000000000000000 ) ) ;
#209 = LINE ( 'NONE', #13, #242 ) ;
#210 = DIRECTION ( 'NONE',  ( -1.000000000000000000, -1.735100057654092364E-16, 0.000000000000000000 ) ) ;
#211 = CARTESIAN_POINT ( 'NONE',  ( 15.00000000000007638, 0.000000000000000000, 599.0000000000000000 ) ) ;
#212 = ADVANCED_FACE ( 'NONE', ( #173 ), #96, .F. ) ;
#213 = APPROVAL_PERSON_ORGANIZATION ( #239, #7, #141 ) ;
#214 = DATE_AND_TIME ( #145, #277 ) ;
#215 = DIRECTION ( 'NONE',  ( 1.734723475976807094E-16, -1.000000000000000000, 0.000000000000000000 ) ) ;
#216 = ORIENTED_EDGE ( 'NONE', *, *, #222, .T. ) ;
#217 = ORIENTED_EDGE ( 'NONE', *, *, #65, .F. ) ;
#218 = SECURITY_CLASSIFICATION_LEVEL ( 'unclassified' ) ;
#219 = PERSON_AND_ORGANIZATION_ROLE ( 'design_supplier' ) ;
#220 = LOCAL_TIME ( 10, 22, 25.00000000000000000, #56 ) ;
#221 = CC_DESIGN_PERSON_AND_ORGANIZATION_ASSIGNMENT ( #21, #43, ( #24 ) ) ;
#222 = EDGE_CURVE ( 'NONE', #133, #147, #75, .T. ) ;
#223 = CC_DESIGN_PERSON_AND_ORGANIZATION_ASSIGNMENT ( #45, #219, ( #46 ) ) ;
#224 = CC_DESIGN_APPROVAL ( #132, ( #24 ) ) ;
#225 = EDGE_LOOP ( 'NONE', ( #29, #71, #97, #172 ) ) ;
#226 = VERTEX_POINT ( 'NONE', #274 ) ;
#227 = ORIENTED_EDGE ( 'NONE', *, *, #240, .F. ) ;
#228 = LINE ( 'NONE', #115, #275 ) ;
#229 = AXIS2_PLACEMENT_3D ( 'NONE', #191, #34, #267 ) ;
#230 = PLANE ( 'NONE',  #33 ) ;
#231 = DIRECTION ( 'NONE',  ( 0.000000000000000000, 0.000000000000000000, -1.000000000000000000 ) ) ;
#232 = DIRECTION ( 'NONE',  ( 0.000000000000000000, 1.000000000000000000, 0.000000000000000000 ) ) ;
#233 = PERSON_AND_ORGANIZATION ( #66, #164 ) ;
#234 = CC_DESIGN_DATE_AND_TIME_ASSIGNMENT ( #16, #195, ( #24 ) ) ;
#235 = CARTESIAN_POINT ( 'NONE',  ( -9.999999999999996447, 12.49999999999999645, -0.3486047368425060355 ) ) ;
#236 = CARTESIAN_POINT ( 'NONE',  ( 15.00000000000007816, -12.49999999999999822, 599.0000000000000000 ) ) ;
#237 = CIRCLE ( 'NONE', #199, 599.4789404140898341 ) ;
#238 = CALENDAR_DATE ( 2024, 24, 12 ) ;
#239 = PERSON_AND_ORGANIZATION ( #66, #164 ) ;
#240 = EDGE_CURVE ( 'NONE', #159, #133, #268, .T. ) ;
#241 = AXIS2_PLACEMENT_3D ( 'NONE', #190, #215, #37 ) ;
#242 = VECTOR ( 'NONE', #249, 1000.000000000000000 ) ;
#243 = ORIENTED_EDGE ( 'NONE', *, *, #157, .F. ) ;
#244 = EDGE_LOOP ( 'NONE', ( #48, #1, #160, #216 ) ) ;
#245 = CARTESIAN_POINT ( 'NONE',  ( 10.00000000000000178, 0.000000000000000000, 599.0000000000000000 ) ) ;
#246 = DIRECTION ( 'NONE',  ( 1.000000000000000000, 1.735100057654092364E-16, 0.000000000000000000 ) ) ;
#247 = DIRECTION ( 'NONE',  ( -1.000000000000000000, 0.000000000000000000, 0.000000000000000000 ) ) ;
#248 = CIRCLE ( 'NONE', #118, 599.8697775350912025 ) ;
#249 = DIRECTION ( 'NONE',  ( -0.000000000000000000, -0.000000000000000000, -1.000000000000000000 ) ) ;
#250 = APPROVAL_STATUS ( 'not_yet_approved' ) ;
#251 = CARTESIAN_POINT ( 'NONE',  ( -10.00000000000000000, -12.50000000000000355, -0.3486047368425060355 ) ) ;
#252 = APPROVAL_ROLE ( '' ) ;
#253 =( NAMED_UNIT ( * ) PLANE_ANGLE_UNIT ( ) SI_UNIT ( $, .RADIAN. ) );
#254 = CARTESIAN_POINT ( 'NONE',  ( -9.999999999999998224, 0.000000000000000000, 599.0000000000000000 ) ) ;
#255 = ORIENTED_EDGE ( 'NONE', *, *, #25, .F. ) ;
#256 = AXIS2_PLACEMENT_3D ( 'NONE', #186, #205, #3 ) ;
#257 = ADVANCED_FACE ( 'NONE', ( #81 ), #14, .F. ) ;
#258 = DIRECTION ( 'NONE',  ( 0.000000000000000000, 0.000000000000000000, 1.000000000000000000 ) ) ;
#259 = AXIS2_PLACEMENT_3D ( 'NONE', #146, #273, #59 ) ;
#260 = EDGE_CURVE ( 'NONE', #147, #90, #78, .T. ) ;
#261 = CC_DESIGN_PERSON_AND_ORGANIZATION_ASSIGNMENT ( #153, #99, ( #155 ) ) ;
#262 = EDGE_LOOP ( 'NONE', ( #177, #70, #264, #125, #206 ) ) ;
#263 = VECTOR ( 'NONE', #193, 1000.000000000000000 ) ;
#264 = ORIENTED_EDGE ( 'NONE', *, *, #157, .T. ) ;
#265 = PLANE ( 'NONE',  #229 ) ;
#266 = DIRECTION ( 'NONE',  ( 1.734723475976807094E-16, -1.000000000000000000, 0.000000000000000000 ) ) ;
#267 = DIRECTION ( 'NONE',  ( 1.000000000000000000, 0.000000000000000000, -0.000000000000000000 ) ) ;
#268 = LINE ( 'NONE', #39, #108 ) ;
#269 = CLOSED_SHELL ( 'NONE', ( #69, #257, #27, #68, #212, #89, #140 ) ) ;
#270 = ORIENTED_EDGE ( 'NONE', *, *, #260, .F. ) ;
#271 = DIRECTION ( 'NONE',  ( -0.000000000000000000, -0.000000000000000000, -1.000000000000000000 ) ) ;
#272 = DIRECTION ( 'NONE',  ( 1.000000000000000000, 0.000000000000000000, 0.000000000000000000 ) ) ;
#273 = DIRECTION ( 'NONE',  ( 0.000000000000000000, 1.000000000000000000, -0.000000000000000000 ) ) ;
#274 = CARTESIAN_POINT ( 'NONE',  ( 10.00000000000000178, -12.50000000000000000, -0.8489393172249615205 ) ) ;
#275 = VECTOR ( 'NONE', #120, 1000.000000000000000 ) ;
#276 = CALENDAR_DATE ( 2024, 24, 12 ) ;
#277 = LOCAL_TIME ( 10, 22, 25.00000000000000000, #109 ) ;
ENDSEC;
END-ISO-10303-21;
