ISO-10303-21;
HEADER;
FILE_DESCRIPTION (( 'STEP AP214' ),
    '1' );
FILE_NAME ('280005.STEP',
    '2019-08-08T01:54:08',
    ( '' ),
    ( '' ),
    'SwSTEP 2.0',
    'SolidWorks 2016',
    '' );
FILE_SCHEMA (( 'AUTOMOTIVE_DESIGN' ));
ENDSEC;

DATA;
#1 = LINE ( 'NONE', #166, #70 ) ;
#2 =( NAMED_UNIT ( * ) PLANE_ANGLE_UNIT ( ) SI_UNIT ( $, .RADIAN. ) );
#3 = AXIS2_PLACEMENT_3D ( 'NONE', #84, #148, #170 ) ;
#4 = EDGE_LOOP ( 'NONE', ( #153, #175, #50, #134 ) ) ;
#5 = DIRECTION ( 'NONE',  ( 1.000000000000000000, -0.0000000000000000000, -0.0000000000000000000 ) ) ;
#6 = ORIENTED_EDGE ( 'NONE', *, *, #143, .F. ) ;
#7 = CIRCLE ( 'NONE', #116, 49.99999999999998600 ) ;
#8 = ORIENTED_EDGE ( 'NONE', *, *, #190, .T. ) ;
#9 = LINE ( 'NONE', #120, #51 ) ;
#10 = CARTESIAN_POINT ( 'NONE',  ( 145.7457307480587500, 27.17896463388353800, 12.50000000000000000 ) ) ;
#11 = FILL_AREA_STYLE_COLOUR ( '', #90 ) ;
#12 = ORIENTED_EDGE ( 'NONE', *, *, #138, .T. ) ;
#13 = AXIS2_PLACEMENT_3D ( 'NONE', #49, #94, #30 ) ;
#14 = CARTESIAN_POINT ( 'NONE',  ( 145.7457307480587800, 39.67896463388353800, 12.50000000000000000 ) ) ;
#15 = CARTESIAN_POINT ( 'NONE',  ( 145.7457307480587800, 39.67896463388353800, 0.0000000000000000000 ) ) ;
#16 = ADVANCED_FACE ( 'NONE', ( #67 ), #73, .F. ) ;
#17 = ORIENTED_EDGE ( 'NONE', *, *, #112, .F. ) ;
#18 = PRODUCT_DEFINITION_SHAPE ( 'NONE', 'NONE',  #121 ) ;
#19 = EDGE_CURVE ( 'NONE', #62, #152, #168, .T. ) ;
#20 = ORIENTED_EDGE ( 'NONE', *, *, #97, .T. ) ;
#21 = DIRECTION ( 'NONE',  ( -1.000000000000000000, 0.0000000000000000000, 0.0000000000000000000 ) ) ;
#22 = CARTESIAN_POINT ( 'NONE',  ( 145.3535678305198400, 33.42896463388342500, 0.0000000000000000000 ) ) ;
#23 = ORIENTED_EDGE ( 'NONE', *, *, #112, .T. ) ;
#24 = CARTESIAN_POINT ( 'NONE',  ( 145.7457307480587500, 27.17896463388356000, 12.50000000000000000 ) ) ;
#25 = DIRECTION ( 'NONE',  ( -0.0000000000000000000, -0.0000000000000000000, -1.000000000000000000 ) ) ;
#26 = CIRCLE ( 'NONE', #188, 49.99999999999998600 ) ;
#27 = CARTESIAN_POINT ( 'NONE',  ( 142.3535678156410400, 27.17896463388353800, 0.0000000000000000000 ) ) ;
#28 = ORIENTED_EDGE ( 'NONE', *, *, #55, .F. ) ;
#29 = CARTESIAN_POINT ( 'NONE',  ( 145.7457307480587500, 27.17896463388353800, 0.0000000000000000000 ) ) ;
#30 = DIRECTION ( 'NONE',  ( 0.0000000000000000000, -0.0000000000000000000, -1.000000000000000000 ) ) ;
#31 = FACE_OUTER_BOUND ( 'NONE', #4, .T. ) ;
#32 = EDGE_CURVE ( 'NONE', #152, #211, #179, .T. ) ;
#33 = VECTOR ( 'NONE', #219, 1000.000000000000000 ) ;
#34 = EDGE_LOOP ( 'NONE', ( #202, #28, #86, #192 ) ) ;
#35 =( LENGTH_UNIT ( ) NAMED_UNIT ( * ) SI_UNIT ( .MILLI., .METRE. ) );
#36 = DIRECTION ( 'NONE',  ( -1.000000000000000000, -0.0000000000000000000, -0.0000000000000000000 ) ) ;
#37 = FACE_OUTER_BOUND ( 'NONE', #191, .T. ) ;
#38 = VERTEX_POINT ( 'NONE', #14 ) ;
#39 = CARTESIAN_POINT ( 'NONE',  ( 145.7457307480587500, 27.17896463388356000, 0.0000000000000000000 ) ) ;
#40 = LINE ( 'NONE', #234, #159 ) ;
#41 = MANIFOLD_SOLID_BREP ( 'Í¹Ì¨-À­Éì1', #56 ) ;
#42 = EDGE_CURVE ( 'NONE', #167, #100, #9, .T. ) ;
#43 = PLANE ( 'NONE',  #3 ) ;
#44 = ORIENTED_EDGE ( 'NONE', *, *, #80, .F. ) ;
#45 = EDGE_CURVE ( 'NONE', #38, #152, #95, .T. ) ;
#46 =( NAMED_UNIT ( * ) PLANE_ANGLE_UNIT ( ) SI_UNIT ( $, .RADIAN. ) );
#47 = APPLICATION_CONTEXT ( 'automotive_design' ) ;
#48 = PLANE ( 'NONE',  #216 ) ;
#49 = CARTESIAN_POINT ( 'NONE',  ( 142.3535678156410400, 39.67896463388353800, 12.50000000000000000 ) ) ;
#50 = ORIENTED_EDGE ( 'NONE', *, *, #19, .T. ) ;
#51 = VECTOR ( 'NONE', #161, 1000.000000000000000 ) ;
#52 = CARTESIAN_POINT ( 'NONE',  ( 0.0000000000000000000, 0.0000000000000000000, 0.0000000000000000000 ) ) ;
#53 = ADVANCED_FACE ( 'NONE', ( #31 ), #189, .F. ) ;
#54 = VERTEX_POINT ( 'NONE', #24 ) ;
#55 = EDGE_CURVE ( 'NONE', #100, #132, #40, .T. ) ;
#56 = CLOSED_SHELL ( 'NONE', ( #53, #91, #89, #222, #16, #110, #171 ) ) ;
#57 = UNCERTAINTY_MEASURE_WITH_UNIT (LENGTH_MEASURE( 1.000000000000000100E-005 ), #150, 'distance_accuracy_value', 'NONE');
#58 =( GEOMETRIC_REPRESENTATION_CONTEXT ( 3 ) GLOBAL_UNCERTAINTY_ASSIGNED_CONTEXT ( ( #176 ) ) GLOBAL_UNIT_ASSIGNED_CONTEXT ( ( #79, #46, #237 ) ) REPRESENTATION_CONTEXT ( 'NONE', 'WORKASPACE' ) );
#59 = DIRECTION ( 'NONE',  ( 1.000000000000000000, 0.0000000000000000000, 0.0000000000000000000 ) ) ;
#60 = DIRECTION ( 'NONE',  ( 0.0000000000000000000, 0.0000000000000000000, 1.000000000000000000 ) ) ;
#61 = LINE ( 'NONE', #124, #33 ) ;
#62 = VERTEX_POINT ( 'NONE', #22 ) ;
#63 = CARTESIAN_POINT ( 'NONE',  ( 195.3535678305198400, 33.42896463388342500, 0.0000000000000000000 ) ) ;
#64 = ORIENTED_EDGE ( 'NONE', *, *, #45, .T. ) ;
#65 = PLANE ( 'NONE',  #131 ) ;
#66 = EDGE_CURVE ( 'NONE', #167, #211, #149, .T. ) ;
#67 = FACE_OUTER_BOUND ( 'NONE', #34, .T. ) ;
#68 = DIRECTION ( 'NONE',  ( 1.000000000000000000, 0.0000000000000000000, -0.0000000000000000000 ) ) ;
#69 = FACE_OUTER_BOUND ( 'NONE', #137, .T. ) ;
#70 = VECTOR ( 'NONE', #145, 1000.000000000000000 ) ;
#71 = ORIENTED_EDGE ( 'NONE', *, *, #146, .F. ) ;
#72 = AXIS2_PLACEMENT_3D ( 'NONE', #117, #59, #208 ) ;
#73 = PLANE ( 'NONE',  #72 ) ;
#74 = EDGE_CURVE ( 'NONE', #54, #119, #193, .T. ) ;
#75 = CARTESIAN_POINT ( 'NONE',  ( 142.3535678156410400, 39.67896463388353800, 0.0000000000000000000 ) ) ;
#76 = FACE_OUTER_BOUND ( 'NONE', #187, .T. ) ;
#77 = DIRECTION ( 'NONE',  ( -0.0000000000000000000, -0.0000000000000000000, -1.000000000000000000 ) ) ;
#78 = MECHANICAL_DESIGN_GEOMETRIC_PRESENTATION_REPRESENTATION (  '', ( #83 ), #233 ) ;
#79 =( LENGTH_UNIT ( ) NAMED_UNIT ( * ) SI_UNIT ( .MILLI., .METRE. ) );
#80 = EDGE_CURVE ( 'NONE', #96, #62, #7, .T. ) ;
#81 = DIRECTION ( 'NONE',  ( -0.0000000000000000000, -0.0000000000000000000, -1.000000000000000000 ) ) ;
#82 = COLOUR_RGB ( '',1.000000000000000000, 1.000000000000000000, 1.000000000000000000 ) ;
#83 = STYLED_ITEM ( 'NONE', ( #136 ), #105 ) ;
#84 = CARTESIAN_POINT ( 'NONE',  ( 195.3535678305198400, 33.42896463388342500, 12.50000000000000000 ) ) ;
#85 = UNCERTAINTY_MEASURE_WITH_UNIT (LENGTH_MEASURE( 1.000000000000000100E-005 ), #35, 'distance_accuracy_value', 'NONE');
#86 = ORIENTED_EDGE ( 'NONE', *, *, #42, .F. ) ;
#87 =( NAMED_UNIT ( * ) SI_UNIT ( $, .STERADIAN. ) SOLID_ANGLE_UNIT ( ) );
#88 = DIRECTION ( 'NONE',  ( 1.000000000000000000, -0.0000000000000000000, -0.0000000000000000000 ) ) ;
#89 = ADVANCED_FACE ( 'NONE', ( #226 ), #218, .F. ) ;
#90 = COLOUR_RGB ( '',1.000000000000000000, 1.000000000000000000, 1.000000000000000000 ) ;
#91 = ADVANCED_FACE ( 'NONE', ( #172 ), #65, .F. ) ;
#92 = PRESENTATION_LAYER_ASSIGNMENT (  '', '', ( #157 ) ) ;
#93 = EDGE_LOOP ( 'NONE', ( #71, #141, #109, #197 ) ) ;
#94 = DIRECTION ( 'NONE',  ( 0.0000000000000000000, -1.000000000000000000, 0.0000000000000000000 ) ) ;
#95 = LINE ( 'NONE', #106, #115 ) ;
#96 = VERTEX_POINT ( 'NONE', #39 ) ;
#97 = EDGE_CURVE ( 'NONE', #38, #167, #210, .T. ) ;
#98 = ORIENTED_EDGE ( 'NONE', *, *, #97, .F. ) ;
#99 = AXIS2_PLACEMENT_3D ( 'NONE', #125, #142, #214 ) ;
#100 = VERTEX_POINT ( 'NONE', #164 ) ;
#101 = SURFACE_STYLE_FILL_AREA ( #160 ) ;
#102 = DIRECTION ( 'NONE',  ( 0.0000000000000000000, 1.000000000000000000, -0.0000000000000000000 ) ) ;
#103 = AXIS2_PLACEMENT_3D ( 'NONE', #178, #139, #181 ) ;
#104 = CARTESIAN_POINT ( 'NONE',  ( 142.3535678156410400, 39.67896463388353800, 12.50000000000000000 ) ) ;
#105 = ADVANCED_BREP_SHAPE_REPRESENTATION ( '280005', ( #41, #151 ), #227 ) ;
#106 = CARTESIAN_POINT ( 'NONE',  ( 145.7457307480587800, 39.67896463388353800, 12.50000000000000000 ) ) ;
#107 = CARTESIAN_POINT ( 'NONE',  ( 195.3535678305198400, 33.42896463388342500, 12.50000000000000000 ) ) ;
#108 = DIRECTION ( 'NONE',  ( -0.0000000000000000000, -0.0000000000000000000, -1.000000000000000000 ) ) ;
#109 = ORIENTED_EDGE ( 'NONE', *, *, #113, .T. ) ;
#110 = ADVANCED_FACE ( 'NONE', ( #69 ), #43, .T. ) ;
#111 = APPLICATION_PROTOCOL_DEFINITION ( 'draft international standard', 'automotive_design', 1998, #223 ) ;
#112 = EDGE_CURVE ( 'NONE', #100, #54, #122, .T. ) ;
#113 = EDGE_CURVE ( 'NONE', #54, #96, #61, .T. ) ;
#114 = CARTESIAN_POINT ( 'NONE',  ( 145.3535678305198400, 33.42896463388342500, 12.50000000000000000 ) ) ;
#115 = VECTOR ( 'NONE', #217, 1000.000000000000000 ) ;
#116 = AXIS2_PLACEMENT_3D ( 'NONE', #63, #230, #198 ) ;
#117 = CARTESIAN_POINT ( 'NONE',  ( 142.3535678156410400, 33.42896463388353800, 12.50000000000000000 ) ) ;
#118 = VECTOR ( 'NONE', #123, 1000.000000000000000 ) ;
#119 = VERTEX_POINT ( 'NONE', #114 ) ;
#120 = CARTESIAN_POINT ( 'NONE',  ( 142.3535678156410400, 27.17896463388353800, 12.50000000000000000 ) ) ;
#121 = PRODUCT_DEFINITION ( 'Î´Öª', '', #135, #232 ) ;
#122 = LINE ( 'NONE', #203, #224 ) ;
#123 = DIRECTION ( 'NONE',  ( -1.000000000000000000, -0.0000000000000000000, -0.0000000000000000000 ) ) ;
#124 = CARTESIAN_POINT ( 'NONE',  ( 145.7457307480587500, 27.17896463388356000, 12.50000000000000000 ) ) ;
#125 = CARTESIAN_POINT ( 'NONE',  ( 195.3535678305198400, 33.42896463388342500, 12.50000000000000000 ) ) ;
#126 = VECTOR ( 'NONE', #88, 1000.000000000000000 ) ;
#127 = ORIENTED_EDGE ( 'NONE', *, *, #32, .F. ) ;
#128 = FILL_AREA_STYLE_COLOUR ( '', #82 ) ;
#129 = DIRECTION ( 'NONE',  ( 1.000000000000000000, 0.0000000000000000000, 0.0000000000000000000 ) ) ;
#130 = CARTESIAN_POINT ( 'NONE',  ( 195.3535678305198400, 33.42896463388342500, 0.0000000000000000000 ) ) ;
#131 = AXIS2_PLACEMENT_3D ( 'NONE', #10, #102, #60 ) ;
#132 = VERTEX_POINT ( 'NONE', #27 ) ;
#133 = PRODUCT ( '280005', '280005', '', ( #184 ) ) ;
#134 = ORIENTED_EDGE ( 'NONE', *, *, #45, .F. ) ;
#135 = PRODUCT_DEFINITION_FORMATION_WITH_SPECIFIED_SOURCE ( 'ÈÎºÎ', '', #133, .NOT_KNOWN. ) ;
#136 = PRESENTATION_STYLE_ASSIGNMENT (( #174 ) ) ;
#137 = EDGE_LOOP ( 'NONE', ( #140, #23, #220, #8, #20 ) ) ;
#138 = EDGE_CURVE ( 'NONE', #132, #96, #182, .T. ) ;
#139 = DIRECTION ( 'NONE',  ( -0.0000000000000000000, -0.0000000000000000000, -1.000000000000000000 ) ) ;
#140 = ORIENTED_EDGE ( 'NONE', *, *, #42, .T. ) ;
#141 = ORIENTED_EDGE ( 'NONE', *, *, #74, .F. ) ;
#142 = DIRECTION ( 'NONE',  ( -0.0000000000000000000, -0.0000000000000000000, -1.000000000000000000 ) ) ;
#143 = EDGE_CURVE ( 'NONE', #211, #132, #228, .T. ) ;
#144 = ORIENTED_EDGE ( 'NONE', *, *, #113, .F. ) ;
#145 = DIRECTION ( 'NONE',  ( -0.0000000000000000000, -0.0000000000000000000, -1.000000000000000000 ) ) ;
#146 = EDGE_CURVE ( 'NONE', #119, #62, #1, .T. ) ;
#147 = FILL_AREA_STYLE ('',( #128 ) ) ;
#148 = DIRECTION ( 'NONE',  ( 0.0000000000000000000, 0.0000000000000000000, 1.000000000000000000 ) ) ;
#149 = LINE ( 'NONE', #104, #196 ) ;
#150 =( LENGTH_UNIT ( ) NAMED_UNIT ( * ) SI_UNIT ( .MILLI., .METRE. ) );
#151 = AXIS2_PLACEMENT_3D ( 'NONE', #52, #239, #129 ) ;
#152 = VERTEX_POINT ( 'NONE', #15 ) ;
#153 = ORIENTED_EDGE ( 'NONE', *, *, #190, .F. ) ;
#154 = MECHANICAL_DESIGN_GEOMETRIC_PRESENTATION_REPRESENTATION (  '', ( #157 ), #58 ) ;
#155 = SURFACE_SIDE_STYLE ('',( #162 ) ) ;
#156 = ORIENTED_EDGE ( 'NONE', *, *, #138, .F. ) ;
#157 = STYLED_ITEM ( 'NONE', ( #231 ), #41 ) ;
#158 = ORIENTED_EDGE ( 'NONE', *, *, #55, .T. ) ;
#159 = VECTOR ( 'NONE', #25, 1000.000000000000000 ) ;
#160 = FILL_AREA_STYLE ('',( #11 ) ) ;
#161 = DIRECTION ( 'NONE',  ( -0.0000000000000000000, -1.000000000000000000, -0.0000000000000000000 ) ) ;
#162 = SURFACE_STYLE_FILL_AREA ( #147 ) ;
#163 = DIRECTION ( 'NONE',  ( 1.000000000000000000, 0.0000000000000000000, 0.0000000000000000000 ) ) ;
#164 = CARTESIAN_POINT ( 'NONE',  ( 142.3535678156410400, 27.17896463388353800, 12.50000000000000000 ) ) ;
#165 = SURFACE_SIDE_STYLE ('',( #101 ) ) ;
#166 = CARTESIAN_POINT ( 'NONE',  ( 145.3535678305198400, 33.42896463388342500, 12.50000000000000000 ) ) ;
#167 = VERTEX_POINT ( 'NONE', #204 ) ;
#168 = CIRCLE ( 'NONE', #180, 49.99999999999998600 ) ;
#169 = CARTESIAN_POINT ( 'NONE',  ( 142.3535678156410400, 39.67896463388353800, 0.0000000000000000000 ) ) ;
#170 = DIRECTION ( 'NONE',  ( 1.000000000000000000, 0.0000000000000000000, -0.0000000000000000000 ) ) ;
#171 = ADVANCED_FACE ( 'NONE', ( #37 ), #48, .F. ) ;
#172 = FACE_OUTER_BOUND ( 'NONE', #177, .T. ) ;
#173 = AXIS2_PLACEMENT_3D ( 'NONE', #195, #235, #21 ) ;
#174 = SURFACE_STYLE_USAGE ( .BOTH. , #155 ) ;
#175 = ORIENTED_EDGE ( 'NONE', *, *, #146, .T. ) ;
#176 = UNCERTAINTY_MEASURE_WITH_UNIT (LENGTH_MEASURE( 1.000000000000000100E-005 ), #79, 'distance_accuracy_value', 'NONE');
#177 = EDGE_LOOP ( 'NONE', ( #12, #144, #17, #158 ) ) ;
#178 = CARTESIAN_POINT ( 'NONE',  ( 195.3535678305198400, 33.42896463388342500, 12.50000000000000000 ) ) ;
#179 = LINE ( 'NONE', #75, #206 ) ;
#180 = AXIS2_PLACEMENT_3D ( 'NONE', #212, #81, #163 ) ;
#181 = DIRECTION ( 'NONE',  ( 1.000000000000000000, 0.0000000000000000000, 0.0000000000000000000 ) ) ;
#182 = LINE ( 'NONE', #29, #126 ) ;
#183 = ORIENTED_EDGE ( 'NONE', *, *, #32, .T. ) ;
#184 = PRODUCT_CONTEXT ( 'NONE', #47, 'mechanical' ) ;
#185 = DIRECTION ( 'NONE',  ( 0.0000000000000000000, 0.0000000000000000000, 1.000000000000000000 ) ) ;
#186 = APPLICATION_PROTOCOL_DEFINITION ( 'draft international standard', 'automotive_design', 1998, #47 ) ;
#187 = EDGE_LOOP ( 'NONE', ( #183, #236, #98, #64 ) ) ;
#188 = AXIS2_PLACEMENT_3D ( 'NONE', #107, #108, #199 ) ;
#189 = CYLINDRICAL_SURFACE ( 'NONE', #99, 49.99999999999998600 ) ;
#190 = EDGE_CURVE ( 'NONE', #119, #38, #26, .T. ) ;
#191 = EDGE_LOOP ( 'NONE', ( #156, #6, #127, #229, #44 ) ) ;
#192 = ORIENTED_EDGE ( 'NONE', *, *, #66, .T. ) ;
#193 = CIRCLE ( 'NONE', #103, 49.99999999999998600 ) ;
#194 = CARTESIAN_POINT ( 'NONE',  ( 142.3535678156410400, 39.67896463388353800, 12.50000000000000000 ) ) ;
#195 = CARTESIAN_POINT ( 'NONE',  ( 195.3535678305198400, 33.42896463388342500, 12.50000000000000000 ) ) ;
#196 = VECTOR ( 'NONE', #77, 1000.000000000000000 ) ;
#197 = ORIENTED_EDGE ( 'NONE', *, *, #80, .T. ) ;
#198 = DIRECTION ( 'NONE',  ( 1.000000000000000000, 0.0000000000000000000, 0.0000000000000000000 ) ) ;
#199 = DIRECTION ( 'NONE',  ( 1.000000000000000000, 0.0000000000000000000, 0.0000000000000000000 ) ) ;
#200 =( NAMED_UNIT ( * ) PLANE_ANGLE_UNIT ( ) SI_UNIT ( $, .RADIAN. ) );
#201 = VECTOR ( 'NONE', #225, 1000.000000000000000 ) ;
#202 = ORIENTED_EDGE ( 'NONE', *, *, #143, .T. ) ;
#203 = CARTESIAN_POINT ( 'NONE',  ( 145.7457307480587500, 27.17896463388353800, 12.50000000000000000 ) ) ;
#204 = CARTESIAN_POINT ( 'NONE',  ( 142.3535678156410400, 39.67896463388353800, 12.50000000000000000 ) ) ;
#205 = PLANE ( 'NONE',  #13 ) ;
#206 = VECTOR ( 'NONE', #36, 1000.000000000000000 ) ;
#207 = PRODUCT_RELATED_PRODUCT_CATEGORY ( 'part', '', ( #133 ) ) ;
#208 = DIRECTION ( 'NONE',  ( 0.0000000000000000000, 0.0000000000000000000, -1.000000000000000000 ) ) ;
#209 = PRESENTATION_LAYER_ASSIGNMENT (  '', '', ( #83 ) ) ;
#210 = LINE ( 'NONE', #194, #118 ) ;
#211 = VERTEX_POINT ( 'NONE', #169 ) ;
#212 = CARTESIAN_POINT ( 'NONE',  ( 195.3535678305198400, 33.42896463388342500, 0.0000000000000000000 ) ) ;
#213 = SHAPE_DEFINITION_REPRESENTATION ( #18, #105 ) ;
#214 = DIRECTION ( 'NONE',  ( -1.000000000000000000, 0.0000000000000000000, 0.0000000000000000000 ) ) ;
#215 = SURFACE_STYLE_USAGE ( .BOTH. , #165 ) ;
#216 = AXIS2_PLACEMENT_3D ( 'NONE', #130, #185, #68 ) ;
#217 = DIRECTION ( 'NONE',  ( -0.0000000000000000000, -0.0000000000000000000, -1.000000000000000000 ) ) ;
#218 = CYLINDRICAL_SURFACE ( 'NONE', #173, 49.99999999999998600 ) ;
#219 = DIRECTION ( 'NONE',  ( -0.0000000000000000000, -0.0000000000000000000, -1.000000000000000000 ) ) ;
#220 = ORIENTED_EDGE ( 'NONE', *, *, #74, .T. ) ;
#221 = CARTESIAN_POINT ( 'NONE',  ( 142.3535678156410400, 33.42896463388353800, 0.0000000000000000000 ) ) ;
#222 = ADVANCED_FACE ( 'NONE', ( #76 ), #205, .F. ) ;
#223 = APPLICATION_CONTEXT ( 'automotive_design' ) ;
#224 = VECTOR ( 'NONE', #5, 1000.000000000000000 ) ;
#225 = DIRECTION ( 'NONE',  ( -0.0000000000000000000, -1.000000000000000000, -0.0000000000000000000 ) ) ;
#226 = FACE_OUTER_BOUND ( 'NONE', #93, .T. ) ;
#227 =( GEOMETRIC_REPRESENTATION_CONTEXT ( 3 ) GLOBAL_UNCERTAINTY_ASSIGNED_CONTEXT ( ( #57 ) ) GLOBAL_UNIT_ASSIGNED_CONTEXT ( ( #150, #2, #238 ) ) REPRESENTATION_CONTEXT ( 'NONE', 'WORKASPACE' ) );
#228 = LINE ( 'NONE', #221, #201 ) ;
#229 = ORIENTED_EDGE ( 'NONE', *, *, #19, .F. ) ;
#230 = DIRECTION ( 'NONE',  ( -0.0000000000000000000, -0.0000000000000000000, -1.000000000000000000 ) ) ;
#231 = PRESENTATION_STYLE_ASSIGNMENT (( #215 ) ) ;
#232 = PRODUCT_DEFINITION_CONTEXT ( 'detailed design', #223, 'design' ) ;
#233 =( GEOMETRIC_REPRESENTATION_CONTEXT ( 3 ) GLOBAL_UNCERTAINTY_ASSIGNED_CONTEXT ( ( #85 ) ) GLOBAL_UNIT_ASSIGNED_CONTEXT ( ( #35, #200, #87 ) ) REPRESENTATION_CONTEXT ( 'NONE', 'WORKASPACE' ) );
#234 = CARTESIAN_POINT ( 'NONE',  ( 142.3535678156410400, 27.17896463388353800, 12.50000000000000000 ) ) ;
#235 = DIRECTION ( 'NONE',  ( -0.0000000000000000000, -0.0000000000000000000, -1.000000000000000000 ) ) ;
#236 = ORIENTED_EDGE ( 'NONE', *, *, #66, .F. ) ;
#237 =( NAMED_UNIT ( * ) SI_UNIT ( $, .STERADIAN. ) SOLID_ANGLE_UNIT ( ) );
#238 =( NAMED_UNIT ( * ) SI_UNIT ( $, .STERADIAN. ) SOLID_ANGLE_UNIT ( ) );
#239 = DIRECTION ( 'NONE',  ( 0.0000000000000000000, 0.0000000000000000000, 1.000000000000000000 ) ) ;
ENDSEC;
END-ISO-10303-21;
