ISO-10303-21;
HEADER;
FILE_DESCRIPTION (( 'STEP AP203' ),
    '1' );
FILE_NAME ('280009.STEP',
    '2022-07-05T09:59:14',
    ( '' ),
    ( '' ),
    'SwSTEP 2.0',
    'SolidWorks 2020',
    '' );
FILE_SCHEMA (( 'CONFIG_CONTROL_DESIGN' ));
ENDSEC;

DATA;
#1 = CARTESIAN_POINT ( 'NONE',  ( 6.744363904596964332, 12.17888577019335017, 2.844993137614882706 ) ) ;
#2 =( NAMED_UNIT ( * ) SI_UNIT ( $, .STERADIAN. ) SOLID_ANGLE_UNIT ( ) );
#3 = CARTESIAN_POINT ( 'NONE',  ( 6.784230873374929693, -12.49924626453694998, -0.8379173482640943638 ) ) ;
#4 = ADVANCED_BREP_SHAPE_REPRESENTATION ( '280009', ( #154, #59 ), #212 ) ;
#5 = CARTESIAN_POINT ( 'NONE',  ( 6.518689400439427573, -10.17451272072971769, 7.272968152522139462 ) ) ;
#6 = CALENDAR_DATE ( 2022, 5, 7 ) ;
#7 = APPROVAL_STATUS ( 'not_yet_approved' ) ;
#8 = APPLICATION_CONTEXT ( 'configuration controlled 3d designs of mechanical parts and assemblies' ) ;
#9 = FACE_OUTER_BOUND ( 'NONE', #39, .T. ) ;
#10 = CARTESIAN_POINT ( 'NONE',  ( 6.705737861693747526, 11.86376687310528233, -4.021502412672333548 ) ) ;
#11 = EDGE_LOOP ( 'NONE', ( #186 ) ) ;
#12 = CARTESIAN_POINT ( 'NONE',  ( 6.218418798072481657, 6.614451887724239754, -10.61435923829585981 ) ) ;
#13 = CARTESIAN_POINT ( 'NONE',  ( 6.417556040856470467, -9.133471059737871656, 8.543742565515707099 ) ) ;
#14 = CARTESIAN_POINT ( 'NONE',  ( 6.288743645011346750, -7.624573760211741380, -9.939335909591905605 ) ) ;
#15 = CC_DESIGN_PERSON_AND_ORGANIZATION_ASSIGNMENT ( #218, #88, ( #163 ) ) ;
#16 = CARTESIAN_POINT ( 'NONE',  ( 6.517422576733006956, -10.16212808190157091, -7.290245649306211106 ) ) ;
#17 = VERTEX_POINT ( 'NONE', #137 ) ;
#18 = CC_DESIGN_APPROVAL ( #195, ( #163 ) ) ;
#19 = CARTESIAN_POINT ( 'NONE',  ( 6.290076603098783359, -7.641969494583477740, 9.926025461513841464 ) ) ;
#20 = CARTESIAN_POINT ( 'NONE',  ( 6.687518855036591603, -11.70708903009135327, 4.400204177639682968 ) ) ;
#21 = APPROVAL ( #178, 'Î´Ö¸¶¨' ) ;
#22 = APPLICATION_CONTEXT ( 'configuration controlled 3d designs of mechanical parts and assemblies' ) ;
#23 = DATE_TIME_ROLE ( 'creation_date' ) ;
#24 = PERSON_AND_ORGANIZATION ( #26, #31 ) ;
#25 = SECURITY_CLASSIFICATION_LEVEL ( 'unclassified' ) ;
#26 = PERSON ( 'Î´Ö¸¶¨', 'Î´Ö¸¶¨', 'Î´Ö¸¶¨', ('Î´Ö¸¶¨'), ('Î´Ö¸¶¨'), ('Î´Ö¸¶¨') ) ;
#27 = APPROVAL_DATE_TIME ( #161, #21 ) ;
#28 = DIRECTION ( 'NONE',  ( -1.000000000000000000, -0.000000000000000000, -0.000000000000000000 ) ) ;
#29 = CARTESIAN_POINT ( 'NONE',  ( 6.080075421157173032, 4.020349053384534521, 11.84294375813385081 ) ) ;
#30 = DIRECTION ( 'NONE',  ( -0.000000000000000000, -0.000000000000000000, 1.000000000000000000 ) ) ;
#31 = ORGANIZATION ( 'Î´Ö¸¶¨', 'Î´Ö¸¶¨', '' ) ;
#32 = CARTESIAN_POINT ( 'NONE',  ( 6.630816493455947480, 11.21618516917315489, 5.533018049958100981 ) ) ;
#33 = ORIENTED_EDGE ( 'NONE', *, *, #219, .F. ) ;
#34 = CARTESIAN_POINT ( 'NONE',  ( 6.012649659023761473, 1.642611419443460896, -12.39846180121356056 ) ) ;
#35 = DIRECTION ( 'NONE',  ( 0.000000000000000000, 0.000000000000000000, 1.000000000000000000 ) ) ;
#36 = CARTESIAN_POINT ( 'NONE',  ( 6.771769766702072424, 12.39999884335994906, -1.630961235470238746 ) ) ;
#37 = CARTESIAN_POINT ( 'NONE',  ( 6.052287992886456358, -3.257031047207969099, 12.07514787205442808 ) ) ;
#38 = CARTESIAN_POINT ( 'NONE',  ( 6.217453805644602483, -6.600050545270214286, -10.62346288349668022 ) ) ;
#39 = EDGE_LOOP ( 'NONE', ( #192 ) ) ;
#40 = CARTESIAN_POINT ( 'NONE',  ( 6.153089376796872401, -5.542984459947908782, 11.21126047577411988 ) ) ;
#41 = CARTESIAN_POINT ( 'NONE',  ( 6.051585765033043351, -3.235430810251147093, -12.08095199371152795 ) ) ;
#42 = CARTESIAN_POINT ( 'NONE',  ( 6.589752774265967616, -10.85404152196668015, 6.253549555811655836 ) ) ;
#43 = UNCERTAINTY_MEASURE_WITH_UNIT (LENGTH_MEASURE( 1.000000000000000082E-05 ), #117, 'distance_accuracy_value', 'NONE');
#44 = DATE_AND_TIME ( #6, #146 ) ;
#45 = CC_DESIGN_PERSON_AND_ORGANIZATION_ASSIGNMENT ( #199, #123, ( #163 ) ) ;
#46 = DATE_TIME_ROLE ( 'classification_date' ) ;
#47 = DATE_AND_TIME ( #144, #125 ) ;
#48 = LOCAL_TIME ( 17, 59, 14.00000000000000000, #58 ) ;
#49 = CARTESIAN_POINT ( 'NONE',  ( 6.080008097130817468, -4.018549333157991121, -11.84350770925828122 ) ) ;
#50 = CARTESIAN_POINT ( 'NONE',  ( 6.565062310280699087, 10.61818848259546400, 6.608547283388002569 ) ) ;
#51 = CARTESIAN_POINT ( 'NONE',  ( 6.000000000000004441, 3.252606517456513302E-16, 12.50000000000000000 ) ) ;
#52 = PRODUCT_RELATED_PRODUCT_CATEGORY ( 'detail', '', ( #182 ) ) ;
#53 = CARTESIAN_POINT ( 'NONE',  ( 6.442585154104365053, 9.415700240878310368, 8.261842107288346782 ) ) ;
#54 = CARTESIAN_POINT ( 'NONE',  ( 6.732039112810339176, -12.07834476738987384, -3.245303389950118245 ) ) ;
#55 = CARTESIAN_POINT ( 'NONE',  ( 6.289706508399267371, 7.613090451855593521, 9.922708174348215948 ) ) ;
#56 = CARTESIAN_POINT ( 'NONE',  ( 6.732742301115096417, -12.08411633026316423, 3.223773141618222038 ) ) ;
#57 = APPROVAL_STATUS ( 'not_yet_approved' ) ;
#58 = COORDINATED_UNIVERSAL_TIME_OFFSET ( 8, 0, .AHEAD. ) ;
#59 = AXIS2_PLACEMENT_3D ( 'NONE', #188, #35, #152 ) ;
#60 = FACE_OUTER_BOUND ( 'NONE', #84, .T. ) ;
#61 = CARTESIAN_POINT ( 'NONE',  ( 106.0000000000000142, 0.000000000000000000, -12.50000000000000000 ) ) ;
#62 = CC_DESIGN_DATE_AND_TIME_ASSIGNMENT ( #44, #46, ( #220 ) ) ;
#63 = CARTESIAN_POINT ( 'NONE',  ( 5.999961830942361907, -0.8114442930983651880, -12.50030535248230379 ) ) ;
#64 = CARTESIAN_POINT ( 'NONE',  ( 6.340310301796463044, 8.249122599832887204, 9.400598921044235112 ) ) ;
#65 = CARTESIAN_POINT ( 'NONE',  ( 6.744853273662669402, -12.18286533107784742, 2.827342943405927844 ) ) ;
#66 = CARTESIAN_POINT ( 'NONE',  ( 6.587988974846349599, 10.83004657034883778, -6.255258827166916724 ) ) ;
#67 = CARTESIAN_POINT ( 'NONE',  ( 6.651097668208798552, 11.39387861839546368, -5.157265898506733670 ) ) ;
#68 = CARTESIAN_POINT ( 'NONE',  ( 6.744227033948627437, -12.17776683286479589, -2.849206853050413546 ) ) ;
#69 = CARTESIAN_POINT ( 'NONE',  ( 6.097168446570758960, -4.423324091327689445, 11.69828370760852465 ) ) ;
#70 = COORDINATED_UNIVERSAL_TIME_OFFSET ( 8, 0, .AHEAD. ) ;
#71 = COORDINATED_UNIVERSAL_TIME_OFFSET ( 8, 0, .AHEAD. ) ;
#72 = CALENDAR_DATE ( 2022, 5, 7 ) ;
#73 = FACE_OUTER_BOUND ( 'NONE', #11, .T. ) ;
#74 = APPROVAL_ROLE ( '' ) ;
#75 = PRODUCT_DEFINITION ( 'Î´Öª', '', #163, #174 ) ;
#76 = CARTESIAN_POINT ( 'NONE',  ( 0.000000000000000000, 0.000000000000000000, 0.000000000000000000 ) ) ;
#77 = CARTESIAN_POINT ( 'NONE',  ( 6.049708598474883736, 3.253026237931321063, -12.09694450472136040 ) ) ;
#78 = EDGE_LOOP ( 'NONE', ( #33 ) ) ;
#79 = AXIS2_PLACEMENT_3D ( 'NONE', #223, #204, #179 ) ;
#80 = CARTESIAN_POINT ( 'NONE',  ( 6.194538023144570360, -6.245032337723948501, -10.83590591362092681 ) ) ;
#81 = CARTESIAN_POINT ( 'NONE',  ( 6.416207222956433753, -9.118772624925863823, -8.559436859586122992 ) ) ;
#82 = APPLICATION_PROTOCOL_DEFINITION ( 'international standard', 'config_control_design', 1994, #8 ) ;
#83 = CARTESIAN_POINT ( 'NONE',  ( 6.493468049757409766, 9.932831382666618580, 7.633096103043965464 ) ) ;
#84 = EDGE_LOOP ( 'NONE', ( #131 ) ) ;
#85 = APPROVAL_PERSON_ORGANIZATION ( #217, #195, #92 ) ;
#86 = CARTESIAN_POINT ( 'NONE',  ( 6.773810595420848735, -12.41729538758011842, -1.650670823013057786 ) ) ;
#87 = CARTESIAN_POINT ( 'NONE',  ( 6.080865757256806781, -4.039801836730373630, 11.83627680034592089 ) ) ;
#88 = PERSON_AND_ORGANIZATION_ROLE ( 'design_supplier' ) ;
#89 = CARTESIAN_POINT ( 'NONE',  ( 6.096598500875788140, 4.410650977682847973, 11.70315886169015762 ) ) ;
#90 = PERSON_AND_ORGANIZATION_ROLE ( 'creator' ) ;
#91 = APPROVAL_DATE_TIME ( #175, #214 ) ;
#92 = APPROVAL_ROLE ( '' ) ;
#93 = CC_DESIGN_PERSON_AND_ORGANIZATION_ASSIGNMENT ( #200, #160, ( #220 ) ) ;
#94 = AXIS2_PLACEMENT_3D ( 'NONE', #61, #30, #112 ) ;
#95 = CARTESIAN_POINT ( 'NONE',  ( 6.000000000000004441, 3.252606517456513302E-16, 12.50000000000000000 ) ) ;
#96 = DIRECTION ( 'NONE',  ( 1.000000000000000000, 0.000000000000000000, 0.000000000000000000 ) ) ;
#97 = CC_DESIGN_SECURITY_CLASSIFICATION ( #220, ( #163 ) ) ;
#98 = CARTESIAN_POINT ( 'NONE',  ( 6.039490057763750031, 2.838357953866594396, 12.18030266766472991 ) ) ;
#99 = ADVANCED_FACE ( 'NONE', ( #207 ), #181, .F. ) ;
#100 = CARTESIAN_POINT ( 'NONE',  ( 6.443435009282953985, 9.425112315952066666, -8.252101759525478641 ) ) ;
#101 = CARTESIAN_POINT ( 'NONE',  ( 6.494403033545230741, 9.941972650483442919, -7.620344970619825631 ) ) ;
#102 = CARTESIAN_POINT ( 'NONE',  ( 6.630878229260091850, 11.21675012171793462, -5.531969668907728455 ) ) ;
#103 = VERTEX_POINT ( 'NONE', #168 ) ;
#104 = CARTESIAN_POINT ( 'NONE',  ( 6.588064621545230537, 10.83072966978955343, 6.253989837934478047 ) ) ;
#105 = CARTESIAN_POINT ( 'NONE',  ( 6.132235375470224348, -5.154748672544811505, -11.39492470876757935 ) ) ;
#106 = APPROVAL_PERSON_ORGANIZATION ( #24, #21, #74 ) ;
#107 = APPLICATION_PROTOCOL_DEFINITION ( 'international standard', 'config_control_design', 1994, #22 ) ;
#108 = EDGE_CURVE ( 'NONE', #17, #17, #141, .T. ) ;
#109 = COORDINATED_UNIVERSAL_TIME_OFFSET ( 8, 0, .AHEAD. ) ;
#110 = APPROVAL_DATE_TIME ( #47, #195 ) ;
#111 = APPROVAL_ROLE ( '' ) ;
#112 = DIRECTION ( 'NONE',  ( 1.000000000000000000, 0.000000000000000000, 0.000000000000000000 ) ) ;
#113 = APPROVAL_PERSON_ORGANIZATION ( #143, #214, #111 ) ;
#114 = CARTESIAN_POINT ( 'NONE',  ( 6.153002066704088335, 5.541499711231788083, -11.21205024982709375 ) ) ;
#115 = CARTESIAN_POINT ( 'NONE',  ( 6.264905752538020067, 7.281951798665946995, 10.16808195107437740 ) ) ;
#116 = CARTESIAN_POINT ( 'NONE',  ( 6.784268459397112316, 12.49954459458101574, 0.8230222634608795884 ) ) ;
#117 =( LENGTH_UNIT ( ) NAMED_UNIT ( * ) SI_UNIT ( .MILLI., .METRE. ) );
#118 = CARTESIAN_POINT ( 'NONE',  ( 6.734610820503118767, 12.09993271855134012, -3.241928987543301943 ) ) ;
#119 = CARTESIAN_POINT ( 'NONE',  ( 6.704106882557160141, -11.84651546023240698, 4.009819472548170616 ) ) ;
#120 = CARTESIAN_POINT ( 'NONE',  ( 6.764183163052188696, 12.33933231140795606, -2.039116707567100395 ) ) ;
#121 = CARTESIAN_POINT ( 'NONE',  ( 6.340901319633851507, -8.270296495118582669, 9.408268617674881540 ) ) ;
#122 = AXIS2_PLACEMENT_3D ( 'NONE', #127, #28, #203 ) ;
#123 = PERSON_AND_ORGANIZATION_ROLE ( 'creator' ) ;
#124 = COORDINATED_UNIVERSAL_TIME_OFFSET ( 8, 0, .AHEAD. ) ;
#125 = LOCAL_TIME ( 17, 59, 14.00000000000000000, #124 ) ;
#126 = CC_DESIGN_PERSON_AND_ORGANIZATION_ASSIGNMENT ( #176, #90, ( #75 ) ) ;
#127 = CARTESIAN_POINT ( 'NONE',  ( 10.00000000000000000, 0.000000000000000000, 0.000000000000000000 ) ) ;
#128 = DIRECTION ( 'NONE',  ( 0.000000000000000000, 0.000000000000000000, -1.000000000000000000 ) ) ;
#129 = ADVANCED_FACE ( 'NONE', ( #9 ), #147, .F. ) ;
#130 = CARTESIAN_POINT ( 'NONE',  ( 6.009914027454861696, -1.623144991767786038, -12.42145332936779134 ) ) ;
#131 = ORIENTED_EDGE ( 'NONE', *, *, #108, .T. ) ;
#132 = CARTESIAN_POINT ( 'NONE',  ( 6.365923609055475829, 8.551864544027010240, 9.125868415037190928 ) ) ;
#133 = CARTESIAN_POINT ( 'NONE',  ( 6.010247197569683841, -1.643930440274691929, 12.41879194949337162 ) ) ;
#134 = CARTESIAN_POINT ( 'NONE',  ( 6.078453225720781283, 4.032146482971839418, -11.86012864545157264 ) ) ;
#135 = PERSON_AND_ORGANIZATION ( #26, #31 ) ;
#136 = CARTESIAN_POINT ( 'NONE',  ( 6.000019249519740860, 0.4127575765796321905, -12.49984600383144873 ) ) ;
#137 = CARTESIAN_POINT ( 'NONE',  ( 0.000000000000000000, 0.000000000000000000, -12.50000000000000000 ) ) ;
#138 = CARTESIAN_POINT ( 'NONE',  ( 6.039970992054159993, -2.855852574367560681, 12.17636363073122041 ) ) ;
#139 = CC_DESIGN_DATE_AND_TIME_ASSIGNMENT ( #142, #23, ( #75 ) ) ;
#140 = CARTESIAN_POINT ( 'NONE',  ( 6.588534228395222847, -10.84291035000242509, -6.272751410873257605 ) ) ;
#141 = CIRCLE ( 'NONE', #180, 12.50000000000000000 ) ;
#142 = DATE_AND_TIME ( #72, #197 ) ;
#143 = PERSON_AND_ORGANIZATION ( #26, #31 ) ;
#144 = CALENDAR_DATE ( 2022, 5, 7 ) ;
#145 = CYLINDRICAL_SURFACE ( 'NONE', #122, 12.50000000000000000 ) ;
#146 = LOCAL_TIME ( 17, 59, 14.00000000000000000, #71 ) ;
#147 = PLANE ( 'NONE',  #79 ) ;
#148 = CARTESIAN_POINT ( 'NONE',  ( 6.195768475390051044, 6.264709500306756773, -10.82458797049550903 ) ) ;
#149 = CLOSED_SHELL ( 'NONE', ( #170, #129, #99 ) ) ;
#150 = CARTESIAN_POINT ( 'NONE',  ( 6.774140929200512140, 12.41994818378122289, 1.634584148388990688 ) ) ;
#151 = CARTESIAN_POINT ( 'NONE',  ( 6.010241811011451496, 1.639375628817381525, 12.41880200939014145 ) ) ;
#152 = DIRECTION ( 'NONE',  ( 1.000000000000000000, 0.000000000000000000, 0.000000000000000000 ) ) ;
#153 = CARTESIAN_POINT ( 'NONE',  ( 6.703311751229136028, 11.83985158326934162, 4.029304506796029806 ) ) ;
#154 = MANIFOLD_SOLID_BREP ( 'ÇÐ³ý-À­Éì1', #149 ) ;
#155 = CARTESIAN_POINT ( 'NONE',  ( 6.774188468349114700, -12.42029642371824671, 1.628047888176067826 ) ) ;
#156 = CARTESIAN_POINT ( 'NONE',  ( 6.731995897768507930, 12.07798593503017059, 3.246480567560155794 ) ) ;
#157 = CARTESIAN_POINT ( 'NONE',  ( 6.784419505078764345, -12.50074348289389370, 0.8152760507635407050 ) ) ;
#158 = CARTESIAN_POINT ( 'NONE',  ( 6.703267032441560858, -11.83948026688434751, -4.030522723272048857 ) ) ;
#159 = CARTESIAN_POINT ( 'NONE',  ( 6.151017547694951126, 5.545682627763079964, 11.23238539882302867 ) ) ;
#160 = PERSON_AND_ORGANIZATION_ROLE ( 'classification_officer' ) ;
#161 = DATE_AND_TIME ( #202, #48 ) ;
#162 = CARTESIAN_POINT ( 'NONE',  ( 6.000000000000004441, 0.8266752415456098957, 12.50000000000000178 ) ) ;
#163 = PRODUCT_DEFINITION_FORMATION_WITH_SPECIFIED_SOURCE ( 'ÈÎºÎ', '', #182, .NOT_KNOWN. ) ;
#164 = CARTESIAN_POINT ( 'NONE',  ( 6.670579485500439887, 11.56458114647404933, 4.796513141042974659 ) ) ;
#165 = CARTESIAN_POINT ( 'NONE',  ( 6.151997532448888251, -5.523320790308964945, -11.22097203077360739 ) ) ;
#166 = CARTESIAN_POINT ( 'NONE',  ( 6.218625030445485535, -6.617729185919573709, 10.61247286104985044 ) ) ;
#167 = CARTESIAN_POINT ( 'NONE',  ( 6.339957720879256797, 8.259439923084627821, -9.418682379973889240 ) ) ;
#168 = CARTESIAN_POINT ( 'NONE',  ( 6.000000000000005329, 0.000000000000000000, 12.50000000000000000 ) ) ;
#169 = CARTESIAN_POINT ( 'NONE',  ( 6.492596526947520985, -9.916939412440646251, -7.620621279628848832 ) ) ;
#170 = ADVANCED_FACE ( 'NONE', ( #73, #60 ), #145, .T. ) ;
#171 = CC_DESIGN_APPROVAL ( #21, ( #220 ) ) ;
#172 = CARTESIAN_POINT ( 'NONE',  ( 6.686604867921540851, -11.69934267592905286, -4.420770404872788717 ) ) ;
#173 = CARTESIAN_POINT ( 'NONE',  ( 6.443180037975615448, -9.407879995942835194, 8.240811923278673845 ) ) ;
#174 = DESIGN_CONTEXT ( 'detailed design', #22, 'design' ) ;
#175 = DATE_AND_TIME ( #221, #183 ) ;
#176 = PERSON_AND_ORGANIZATION ( #26, #31 ) ;
#177 = SHAPE_DEFINITION_REPRESENTATION ( #205, #4 ) ;
#178 = APPROVAL_STATUS ( 'not_yet_approved' ) ;
#179 = DIRECTION ( 'NONE',  ( 0.000000000000000000, 0.000000000000000000, -1.000000000000000000 ) ) ;
#180 = AXIS2_PLACEMENT_3D ( 'NONE', #76, #96, #128 ) ;
#181 = CYLINDRICAL_SURFACE ( 'NONE', #94, 100.0000000000000000 ) ;
#182 = PRODUCT ( '280009', '280009', '', ( #190 ) ) ;
#183 = LOCAL_TIME ( 17, 59, 14.00000000000000000, #109 ) ;
#184 = B_SPLINE_CURVE_WITH_KNOTS ( 'NONE', 3,
 ( #95, #162, #151, #98, #222, #29, #89, #159, #226, #115, #55, #64, #132, #53, #83, #50, #104, #32, #164, #153, #156, #1, #150, #116, #189, #208, #36, #120, #118, #10, #67, #102, #66, #194, #101, #100, #167, #228, #12, #148, #114, #213, #134, #77, #225, #34, #185, #136, #63, #130, #206, #41, #49, #187, #105, #165, #80, #38, #14, #210, #81, #191, #169, #16, #140, #215, #172, #158, #54, #68, #86, #3, #157, #155, #65, #56, #119, #20, #227, #42, #5, #216, #173, #13, #121, #19, #166, #193, #40, #211, #69, #87, #37, #138, #133, #209, #51 ),
 .UNSPECIFIED., .T., .F.,
 ( 4, 2, 2, 2, 2, 2, 2, 2, 2, 1, 2, 2, 2, 2, 2, 2, 2, 2, 2, 2, 2, 2, 2, 2, 2, 2, 2, 2, 2, 2, 2, 2, 2, 2, 2, 2, 2, 2, 2, 2, 2, 2, 2, 2, 2, 2, 2, 2, 4 ),
 ( 0.000000000000000000, 0.002444641381261417404, 0.003666962071892125672, 0.004889282762522836542, 0.007333924143784257416, 0.008556244834414968720, 0.009778565525045681758, 0.01222320690630710610, 0.01344552759693781567, 0.01466784828756852697, 0.01589016897819924001, 0.01711248966882995132, 0.01955713105009136699, 0.02077945174072207482, 0.02200177243135278612, 0.02444641381261420873, 0.02566873450324491657, 0.02689105519387562440, 0.02933569657513705048, 0.03178033795639847309, 0.03300265864702918439, 0.03422497933765990263, 0.03666962071892131136, 0.03789194140955202267, 0.03911426210018272703, 0.04155890348144414270, 0.04278122417207485401, 0.04400354486270556531, 0.04522586555333626968, 0.04644818624396698098, 0.04889282762522838971, 0.05011514831585908714, 0.05133746900648979150, 0.05378211038775119329, 0.05500443107838189072, 0.05622675176901260202, 0.05867139315027399687, 0.06111603453153539173, 0.06233835522216609609, 0.06356067591279679352, 0.06600531729405818837, 0.06722763798468889274, 0.06844995867531959710, 0.07089460005658101971, 0.07211692074721172407, 0.07333924143784242844, 0.07456156212847313280, 0.07578388281910385105, 0.07822852420036524590 ),
 .UNSPECIFIED. ) ;
#185 = CARTESIAN_POINT ( 'NONE',  ( 6.002535966205710061, 0.8219411745521197910, -12.47976121634599522 ) ) ;
#186 = ORIENTED_EDGE ( 'NONE', *, *, #219, .T. ) ;
#187 = CARTESIAN_POINT ( 'NONE',  ( 6.096241083220904855, -4.402362919576772171, -11.70619253728213138 ) ) ;
#188 = CARTESIAN_POINT ( 'NONE',  ( 0.000000000000000000, 0.000000000000000000, 0.000000000000000000 ) ) ;
#189 = CARTESIAN_POINT ( 'NONE',  ( 6.784354158208704355, 12.50022480791711210, -0.4010921727626726718 ) ) ;
#190 = MECHANICAL_CONTEXT ( 'NONE', #8, 'mechanical' ) ;
#191 = CARTESIAN_POINT ( 'NONE',  ( 6.441858848999065579, -9.393910996823976234, -8.256754336983757270 ) ) ;
#192 = ORIENTED_EDGE ( 'NONE', *, *, #108, .F. ) ;
#193 = CARTESIAN_POINT ( 'NONE',  ( 6.195697147385443415, -6.263495016740371568, 10.82523294687682913 ) ) ;
#194 = CARTESIAN_POINT ( 'NONE',  ( 6.565278086949012604, 10.62015725084104467, -6.605140375568215205 ) ) ;
#195 = APPROVAL ( #57, 'Î´Ö¸¶¨' ) ;
#196 = PERSON_AND_ORGANIZATION_ROLE ( 'design_owner' ) ;
#197 = LOCAL_TIME ( 17, 59, 14.00000000000000000, #70 ) ;
#198 =( NAMED_UNIT ( * ) PLANE_ANGLE_UNIT ( ) SI_UNIT ( $, .RADIAN. ) );
#199 = PERSON_AND_ORGANIZATION ( #26, #31 ) ;
#200 = PERSON_AND_ORGANIZATION ( #26, #31 ) ;
#201 = CC_DESIGN_APPROVAL ( #214, ( #75 ) ) ;
#202 = CALENDAR_DATE ( 2022, 5, 7 ) ;
#203 = DIRECTION ( 'NONE',  ( 0.000000000000000000, 0.000000000000000000, 1.000000000000000000 ) ) ;
#204 = DIRECTION ( 'NONE',  ( 1.000000000000000000, 0.000000000000000000, 0.000000000000000000 ) ) ;
#205 = PRODUCT_DEFINITION_SHAPE ( 'NONE', 'NONE',  #75 ) ;
#206 = CARTESIAN_POINT ( 'NONE',  ( 6.039347400538609634, -2.833885143245959082, -12.18147653670853536 ) ) ;
#207 = FACE_OUTER_BOUND ( 'NONE', #78, .T. ) ;
#208 = CARTESIAN_POINT ( 'NONE',  ( 6.781865704309931964, 12.48052376425444621, -0.8102668923353615327 ) ) ;
#209 = CARTESIAN_POINT ( 'NONE',  ( 6.000000000000004441, -0.8266752415456034564, 12.50000000000000000 ) ) ;
#210 = CARTESIAN_POINT ( 'NONE',  ( 6.339520569687987717, -8.253728363919650590, -9.422837271649340707 ) ) ;
#211 = CARTESIAN_POINT ( 'NONE',  ( 6.133279826356631048, -5.174915474574391716, 11.38577566754367254 ) ) ;
#212 =( GEOMETRIC_REPRESENTATION_CONTEXT ( 3 ) GLOBAL_UNCERTAINTY_ASSIGNED_CONTEXT ( ( #43 ) ) GLOBAL_UNIT_ASSIGNED_CONTEXT ( ( #117, #198, #2 ) ) REPRESENTATION_CONTEXT ( 'NONE', 'WORKASPACE' ) );
#213 = CARTESIAN_POINT ( 'NONE',  ( 6.132860700528392606, 5.167002699446120673, -11.38945992093642801 ) ) ;
#214 = APPROVAL ( #7, 'Î´Ö¸¶¨' ) ;
#215 = CARTESIAN_POINT ( 'NONE',  ( 6.631777604576264196, -11.22749592786638750, -5.555596752410940198 ) ) ;
#216 = CARTESIAN_POINT ( 'NONE',  ( 6.493829741130912936, -9.929284333825622255, 7.604505229859371163 ) ) ;
#217 = PERSON_AND_ORGANIZATION ( #26, #31 ) ;
#218 = PERSON_AND_ORGANIZATION ( #26, #31 ) ;
#219 = EDGE_CURVE ( 'NONE', #103, #103, #184, .T. ) ;
#220 = SECURITY_CLASSIFICATION ( '', '', #25 ) ;
#221 = CALENDAR_DATE ( 2022, 5, 7 ) ;
#222 = CARTESIAN_POINT ( 'NONE',  ( 6.051555400217814906, 3.234649353015071505, 12.08120718026185436 ) ) ;
#223 = CARTESIAN_POINT ( 'NONE',  ( 0.000000000000000000, 0.000000000000000000, 0.000000000000000000 ) ) ;
#224 = CC_DESIGN_PERSON_AND_ORGANIZATION_ASSIGNMENT ( #135, #196, ( #182 ) ) ;
#225 = CARTESIAN_POINT ( 'NONE',  ( 6.020224066140557717, 2.050643058621255399, -12.33741968808197775 ) ) ;
#226 = CARTESIAN_POINT ( 'NONE',  ( 6.194017690797531728, 6.263328307540578344, 10.84839014597999096 ) ) ;
#227 = CARTESIAN_POINT ( 'NONE',  ( 6.632900328570972448, -11.23738767672816330, 5.535525237638262652 ) ) ;
#228 = CARTESIAN_POINT ( 'NONE',  ( 6.289127038934719138, 7.628990566896447056, -9.935335232827663177 ) ) ;
ENDSEC;
END-ISO-10303-21;
