ISO-10303-21;
HEADER;
FILE_DESCRIPTION (( 'STEP AP214' ),
    '1' );
FILE_NAME ('280007.STEP',
    '2019-08-08T02:01:12',
    ( '' ),
    ( '' ),
    'SwSTEP 2.0',
    'SolidWorks 2016',
    '' );
FILE_SCHEMA (( 'AUTOMOTIVE_DESIGN' ));
ENDSEC;

DATA;
#1 = AXIS2_PLACEMENT_3D ( 'NONE', #180, #177, #87 ) ;
#2 = CIRCLE ( 'NONE', #76, 149.9999999999999700 ) ;
#3 = EDGE_LOOP ( 'NONE', ( #160, #96, #130, #145 ) ) ;
#4 = VERTEX_POINT ( 'NONE', #79 ) ;
#5 = ADVANCED_FACE ( 'NONE', ( #73 ), #146, .F. ) ;
#6 = CARTESIAN_POINT ( 'NONE',  ( 142.3535678156410400, 27.17896463388353800, 12.50000000000000000 ) ) ;
#7 = SURFACE_STYLE_FILL_AREA ( #154 ) ;
#8 = DIRECTION ( 'NONE',  ( 1.000000000000000000, 0.0000000000000000000, 0.0000000000000000000 ) ) ;
#9 = ORIENTED_EDGE ( 'NONE', *, *, #184, .F. ) ;
#10 = VECTOR ( 'NONE', #37, 1000.000000000000000 ) ;
#11 = CLOSED_SHELL ( 'NONE', ( #178, #32, #5, #136, #42, #100, #217 ) ) ;
#12 = CARTESIAN_POINT ( 'NONE',  ( 0.0000000000000000000, 0.0000000000000000000, 0.0000000000000000000 ) ) ;
#13 = DIRECTION ( 'NONE',  ( -0.0000000000000000000, -1.000000000000000000, -0.0000000000000000000 ) ) ;
#14 = SURFACE_STYLE_FILL_AREA ( #196 ) ;
#15 = ORIENTED_EDGE ( 'NONE', *, *, #166, .F. ) ;
#16 = EDGE_CURVE ( 'NONE', #98, #4, #165, .T. ) ;
#17 = EDGE_LOOP ( 'NONE', ( #27, #112, #162, #219 ) ) ;
#18 = LINE ( 'NONE', #123, #10 ) ;
#19 = ORIENTED_EDGE ( 'NONE', *, *, #77, .F. ) ;
#20 = ORIENTED_EDGE ( 'NONE', *, *, #67, .T. ) ;
#21 = DIRECTION ( 'NONE',  ( -0.0000000000000000000, -0.0000000000000000000, -1.000000000000000000 ) ) ;
#22 = ORIENTED_EDGE ( 'NONE', *, *, #67, .F. ) ;
#23 = DIRECTION ( 'NONE',  ( -1.000000000000000000, -2.216711407304828500E-015, 0.0000000000000000000 ) ) ;
#24 = EDGE_CURVE ( 'NONE', #4, #45, #101, .T. ) ;
#25 = DIRECTION ( 'NONE',  ( -0.0000000000000000000, -0.0000000000000000000, -1.000000000000000000 ) ) ;
#26 = DIRECTION ( 'NONE',  ( -0.0000000000000000000, -0.0000000000000000000, -1.000000000000000000 ) ) ;
#27 = ORIENTED_EDGE ( 'NONE', *, *, #192, .F. ) ;
#28 =( NAMED_UNIT ( * ) PLANE_ANGLE_UNIT ( ) SI_UNIT ( $, .RADIAN. ) );
#29 = AXIS2_PLACEMENT_3D ( 'NONE', #173, #191, #133 ) ;
#30 = CARTESIAN_POINT ( 'NONE',  ( 145.4838327121183900, 27.17896463388357000, 0.0000000000000000000 ) ) ;
#31 = CARTESIAN_POINT ( 'NONE',  ( 295.3535678156408700, 33.42896463388353800, 12.50000000000000000 ) ) ;
#32 = ADVANCED_FACE ( 'NONE', ( #156 ), #170, .F. ) ;
#33 = CARTESIAN_POINT ( 'NONE',  ( 145.4838327121183900, 39.67896463388353800, 12.50000000000000000 ) ) ;
#34 = DIRECTION ( 'NONE',  ( -0.0000000000000000000, -0.0000000000000000000, -1.000000000000000000 ) ) ;
#35 = ORIENTED_EDGE ( 'NONE', *, *, #236, .F. ) ;
#36 = PRODUCT_DEFINITION ( 'Î´Öª', '', #118, #229 ) ;
#37 = DIRECTION ( 'NONE',  ( 1.000000000000000000, 2.216711407304828500E-015, -0.0000000000000000000 ) ) ;
#38 = CARTESIAN_POINT ( 'NONE',  ( 142.3535678156410400, 27.17896463388353800, 12.50000000000000000 ) ) ;
#39 = PLANE ( 'NONE',  #220 ) ;
#40 = VERTEX_POINT ( 'NONE', #80 ) ;
#41 = DIRECTION ( 'NONE',  ( -1.000000000000000000, 0.0000000000000000000, 0.0000000000000000000 ) ) ;
#42 = ADVANCED_FACE ( 'NONE', ( #114 ), #39, .F. ) ;
#43 = DIRECTION ( 'NONE',  ( 1.000000000000000000, 0.0000000000000000000, 0.0000000000000000000 ) ) ;
#44 = FACE_OUTER_BOUND ( 'NONE', #222, .T. ) ;
#45 = VERTEX_POINT ( 'NONE', #185 ) ;
#46 = DIRECTION ( 'NONE',  ( 0.0000000000000000000, 0.0000000000000000000, 1.000000000000000000 ) ) ;
#47 =( NAMED_UNIT ( * ) PLANE_ANGLE_UNIT ( ) SI_UNIT ( $, .RADIAN. ) );
#48 = AXIS2_PLACEMENT_3D ( 'NONE', #86, #61, #120 ) ;
#49 = EDGE_CURVE ( 'NONE', #181, #172, #55, .T. ) ;
#50 = UNCERTAINTY_MEASURE_WITH_UNIT (LENGTH_MEASURE( 1.000000000000000100E-005 ), #186, 'distance_accuracy_value', 'NONE');
#51 = LINE ( 'NONE', #140, #54 ) ;
#52 = ORIENTED_EDGE ( 'NONE', *, *, #169, .T. ) ;
#53 = AXIS2_PLACEMENT_3D ( 'NONE', #224, #135, #122 ) ;
#54 = VECTOR ( 'NONE', #103, 1000.000000000000000 ) ;
#55 = LINE ( 'NONE', #38, #64 ) ;
#56 = EDGE_LOOP ( 'NONE', ( #19, #147, #60, #149, #15 ) ) ;
#57 = CIRCLE ( 'NONE', #1, 149.9999999999999700 ) ;
#58 = CARTESIAN_POINT ( 'NONE',  ( 295.3535678156408700, 33.42896463388353800, 12.50000000000000000 ) ) ;
#59 = CARTESIAN_POINT ( 'NONE',  ( 142.3535678156410400, 33.42896463388353800, 12.50000000000000000 ) ) ;
#60 = ORIENTED_EDGE ( 'NONE', *, *, #24, .F. ) ;
#61 = DIRECTION ( 'NONE',  ( 0.0000000000000000000, 0.0000000000000000000, 1.000000000000000000 ) ) ;
#62 =( GEOMETRIC_REPRESENTATION_CONTEXT ( 3 ) GLOBAL_UNCERTAINTY_ASSIGNED_CONTEXT ( ( #50 ) ) GLOBAL_UNIT_ASSIGNED_CONTEXT ( ( #186, #28, #65 ) ) REPRESENTATION_CONTEXT ( 'NONE', 'WORKASPACE' ) );
#63 = CIRCLE ( 'NONE', #29, 149.9999999999999700 ) ;
#64 = VECTOR ( 'NONE', #153, 1000.000000000000000 ) ;
#65 =( NAMED_UNIT ( * ) SI_UNIT ( $, .STERADIAN. ) SOLID_ANGLE_UNIT ( ) );
#66 = FILL_AREA_STYLE_COLOUR ( '', #99 ) ;
#67 = EDGE_CURVE ( 'NONE', #143, #181, #152, .T. ) ;
#68 =( NAMED_UNIT ( * ) SI_UNIT ( $, .STERADIAN. ) SOLID_ANGLE_UNIT ( ) );
#69 = ORIENTED_EDGE ( 'NONE', *, *, #239, .F. ) ;
#70 = APPLICATION_PROTOCOL_DEFINITION ( 'draft international standard', 'automotive_design', 1998, #138 ) ;
#71 = AXIS2_PLACEMENT_3D ( 'NONE', #12, #46, #8 ) ;
#72 =( NAMED_UNIT ( * ) PLANE_ANGLE_UNIT ( ) SI_UNIT ( $, .RADIAN. ) );
#73 = FACE_OUTER_BOUND ( 'NONE', #3, .T. ) ;
#74 = ORIENTED_EDGE ( 'NONE', *, *, #169, .F. ) ;
#75 = ORIENTED_EDGE ( 'NONE', *, *, #49, .F. ) ;
#76 = AXIS2_PLACEMENT_3D ( 'NONE', #31, #25, #216 ) ;
#77 = EDGE_CURVE ( 'NONE', #172, #78, #234, .T. ) ;
#78 = VERTEX_POINT ( 'NONE', #30 ) ;
#79 = CARTESIAN_POINT ( 'NONE',  ( 145.4838327121183900, 39.67896463388353800, 0.0000000000000000000 ) ) ;
#80 = CARTESIAN_POINT ( 'NONE',  ( 145.4838327121183900, 27.17896463388357000, 12.50000000000000000 ) ) ;
#81 = CARTESIAN_POINT ( 'NONE',  ( 142.3535678156410400, 39.67896463388353800, 12.50000000000000000 ) ) ;
#82 = DIRECTION ( 'NONE',  ( -1.000000000000000000, -0.0000000000000000000, -0.0000000000000000000 ) ) ;
#83 = DIRECTION ( 'NONE',  ( -0.0000000000000000000, -0.0000000000000000000, -1.000000000000000000 ) ) ;
#84 = CARTESIAN_POINT ( 'NONE',  ( 142.3535678156410400, 39.67896463388353800, 12.50000000000000000 ) ) ;
#85 = SURFACE_STYLE_USAGE ( .BOTH. , #131 ) ;
#86 = CARTESIAN_POINT ( 'NONE',  ( 295.3535678156408700, 33.42896463388353800, 12.50000000000000000 ) ) ;
#87 = DIRECTION ( 'NONE',  ( 1.000000000000000000, 0.0000000000000000000, 0.0000000000000000000 ) ) ;
#88 = AXIS2_PLACEMENT_3D ( 'NONE', #58, #26, #41 ) ;
#89 = PRESENTATION_STYLE_ASSIGNMENT (( #179 ) ) ;
#90 = ADVANCED_BREP_SHAPE_REPRESENTATION ( '280007', ( #137, #71 ), #107 ) ;
#91 = PRODUCT ( '280007', '280007', '', ( #235 ) ) ;
#92 = AXIS2_PLACEMENT_3D ( 'NONE', #106, #34, #43 ) ;
#93 = ORIENTED_EDGE ( 'NONE', *, *, #16, .T. ) ;
#94 = CARTESIAN_POINT ( 'NONE',  ( 295.3535678156408700, 33.42896463388353800, 12.50000000000000000 ) ) ;
#95 = UNCERTAINTY_MEASURE_WITH_UNIT (LENGTH_MEASURE( 1.000000000000000100E-005 ), #142, 'distance_accuracy_value', 'NONE');
#96 = ORIENTED_EDGE ( 'NONE', *, *, #221, .F. ) ;
#97 = CARTESIAN_POINT ( 'NONE',  ( 142.3535678156410400, 39.67896463388353800, 12.50000000000000000 ) ) ;
#98 = VERTEX_POINT ( 'NONE', #33 ) ;
#99 = COLOUR_RGB ( '',1.000000000000000000, 1.000000000000000000, 1.000000000000000000 ) ;
#100 = ADVANCED_FACE ( 'NONE', ( #109 ), #225, .T. ) ;
#101 = LINE ( 'NONE', #115, #215 ) ;
#102 = CARTESIAN_POINT ( 'NONE',  ( 145.3535678156408700, 33.42896463388353800, 0.0000000000000000000 ) ) ;
#103 = DIRECTION ( 'NONE',  ( -0.0000000000000000000, -0.0000000000000000000, -1.000000000000000000 ) ) ;
#104 = FACE_OUTER_BOUND ( 'NONE', #17, .T. ) ;
#105 = ORIENTED_EDGE ( 'NONE', *, *, #49, .T. ) ;
#106 = CARTESIAN_POINT ( 'NONE',  ( 295.3535678156408700, 33.42896463388353800, 12.50000000000000000 ) ) ;
#107 =( GEOMETRIC_REPRESENTATION_CONTEXT ( 3 ) GLOBAL_UNCERTAINTY_ASSIGNED_CONTEXT ( ( #95 ) ) GLOBAL_UNIT_ASSIGNED_CONTEXT ( ( #142, #72, #158 ) ) REPRESENTATION_CONTEXT ( 'NONE', 'WORKASPACE' ) );
#108 = EDGE_LOOP ( 'NONE', ( #233, #75, #22, #52 ) ) ;
#109 = FACE_OUTER_BOUND ( 'NONE', #212, .T. ) ;
#110 = VECTOR ( 'NONE', #13, 1000.000000000000000 ) ;
#111 = ORIENTED_EDGE ( 'NONE', *, *, #221, .T. ) ;
#112 = ORIENTED_EDGE ( 'NONE', *, *, #205, .T. ) ;
#113 = AXIS2_PLACEMENT_3D ( 'NONE', #84, #117, #189 ) ;
#114 = FACE_OUTER_BOUND ( 'NONE', #108, .T. ) ;
#115 = CARTESIAN_POINT ( 'NONE',  ( 142.3535678156410400, 39.67896463388353800, 0.0000000000000000000 ) ) ;
#116 = LINE ( 'NONE', #214, #110 ) ;
#117 = DIRECTION ( 'NONE',  ( 0.0000000000000000000, -1.000000000000000000, 0.0000000000000000000 ) ) ;
#118 = PRODUCT_DEFINITION_FORMATION_WITH_SPECIFIED_SOURCE ( 'ÈÎºÎ', '', #91, .NOT_KNOWN. ) ;
#119 = LINE ( 'NONE', #97, #125 ) ;
#120 = DIRECTION ( 'NONE',  ( 1.000000000000000000, 0.0000000000000000000, -0.0000000000000000000 ) ) ;
#121 = PLANE ( 'NONE',  #53 ) ;
#122 = DIRECTION ( 'NONE',  ( 1.000000000000000000, 0.0000000000000000000, -0.0000000000000000000 ) ) ;
#123 = CARTESIAN_POINT ( 'NONE',  ( 145.4838327121183900, 27.17896463388354500, 12.50000000000000000 ) ) ;
#124 = EDGE_LOOP ( 'NONE', ( #187, #69, #35, #105 ) ) ;
#125 = VECTOR ( 'NONE', #227, 1000.000000000000000 ) ;
#126 = STYLED_ITEM ( 'NONE', ( #199 ), #137 ) ;
#127 = SHAPE_DEFINITION_REPRESENTATION ( #168, #90 ) ;
#128 = AXIS2_PLACEMENT_3D ( 'NONE', #94, #21, #207 ) ;
#129 = CARTESIAN_POINT ( 'NONE',  ( 145.4838327121183900, 39.67896463388353800, 12.50000000000000000 ) ) ;
#130 = ORIENTED_EDGE ( 'NONE', *, *, #239, .T. ) ;
#131 = SURFACE_SIDE_STYLE ('',( #7 ) ) ;
#132 = DIRECTION ( 'NONE',  ( 1.000000000000000000, 2.216711407304828500E-015, -0.0000000000000000000 ) ) ;
#133 = DIRECTION ( 'NONE',  ( 1.000000000000000000, 0.0000000000000000000, 0.0000000000000000000 ) ) ;
#134 = DIRECTION ( 'NONE',  ( 1.000000000000000000, 0.0000000000000000000, 0.0000000000000000000 ) ) ;
#135 = DIRECTION ( 'NONE',  ( 0.0000000000000000000, 0.0000000000000000000, 1.000000000000000000 ) ) ;
#136 = ADVANCED_FACE ( 'NONE', ( #44 ), #213, .F. ) ;
#137 = MANIFOLD_SOLID_BREP ( 'Í¹Ì¨-À­Éì1', #11 ) ;
#138 = APPLICATION_CONTEXT ( 'automotive_design' ) ;
#139 = AXIS2_PLACEMENT_3D ( 'NONE', #171, #211, #23 ) ;
#140 = CARTESIAN_POINT ( 'NONE',  ( 145.4838327121183900, 27.17896463388357000, 12.50000000000000000 ) ) ;
#141 = ORIENTED_EDGE ( 'NONE', *, *, #184, .T. ) ;
#142 =( LENGTH_UNIT ( ) NAMED_UNIT ( * ) SI_UNIT ( .MILLI., .METRE. ) );
#143 = VERTEX_POINT ( 'NONE', #81 ) ;
#144 = VECTOR ( 'NONE', #176, 1000.000000000000000 ) ;
#145 = ORIENTED_EDGE ( 'NONE', *, *, #166, .T. ) ;
#146 = CYLINDRICAL_SURFACE ( 'NONE', #128, 150.0000000000000000 ) ;
#147 = ORIENTED_EDGE ( 'NONE', *, *, #230, .F. ) ;
#148 = LINE ( 'NONE', #175, #218 ) ;
#149 = ORIENTED_EDGE ( 'NONE', *, *, #223, .F. ) ;
#150 = CARTESIAN_POINT ( 'NONE',  ( 145.4838327121183900, 27.17896463388354500, 0.0000000000000000000 ) ) ;
#151 = CARTESIAN_POINT ( 'NONE',  ( 142.3535678156410400, 27.17896463388353800, 0.0000000000000000000 ) ) ;
#152 = LINE ( 'NONE', #174, #164 ) ;
#153 = DIRECTION ( 'NONE',  ( -0.0000000000000000000, -0.0000000000000000000, -1.000000000000000000 ) ) ;
#154 = FILL_AREA_STYLE ('',( #157 ) ) ;
#155 = COLOUR_RGB ( '',1.000000000000000000, 1.000000000000000000, 1.000000000000000000 ) ;
#156 = FACE_OUTER_BOUND ( 'NONE', #124, .T. ) ;
#157 = FILL_AREA_STYLE_COLOUR ( '', #155 ) ;
#158 =( NAMED_UNIT ( * ) SI_UNIT ( $, .STERADIAN. ) SOLID_ANGLE_UNIT ( ) );
#159 = PRODUCT_RELATED_PRODUCT_CATEGORY ( 'part', '', ( #91 ) ) ;
#160 = ORIENTED_EDGE ( 'NONE', *, *, #205, .F. ) ;
#161 = LINE ( 'NONE', #228, #144 ) ;
#162 = ORIENTED_EDGE ( 'NONE', *, *, #223, .T. ) ;
#163 = APPLICATION_CONTEXT ( 'automotive_design' ) ;
#164 = VECTOR ( 'NONE', #188, 1000.000000000000000 ) ;
#165 = LINE ( 'NONE', #129, #203 ) ;
#166 = EDGE_CURVE ( 'NONE', #78, #200, #63, .T. ) ;
#167 = CYLINDRICAL_SURFACE ( 'NONE', #88, 150.0000000000000000 ) ;
#168 = PRODUCT_DEFINITION_SHAPE ( 'NONE', 'NONE',  #36 ) ;
#169 = EDGE_CURVE ( 'NONE', #143, #45, #119, .T. ) ;
#170 = PLANE ( 'NONE',  #139 ) ;
#171 = CARTESIAN_POINT ( 'NONE',  ( 145.4838327121183900, 27.17896463388354500, 12.50000000000000000 ) ) ;
#172 = VERTEX_POINT ( 'NONE', #151 ) ;
#173 = CARTESIAN_POINT ( 'NONE',  ( 295.3535678156408700, 33.42896463388353800, 0.0000000000000000000 ) ) ;
#174 = CARTESIAN_POINT ( 'NONE',  ( 142.3535678156410400, 27.17896463388353800, 12.50000000000000000 ) ) ;
#175 = CARTESIAN_POINT ( 'NONE',  ( 145.3535678156408700, 33.42896463388353800, 12.50000000000000000 ) ) ;
#176 = DIRECTION ( 'NONE',  ( -1.000000000000000000, -0.0000000000000000000, -0.0000000000000000000 ) ) ;
#177 = DIRECTION ( 'NONE',  ( -0.0000000000000000000, -0.0000000000000000000, -1.000000000000000000 ) ) ;
#178 = ADVANCED_FACE ( 'NONE', ( #104 ), #167, .F. ) ;
#179 = SURFACE_STYLE_USAGE ( .BOTH. , #193 ) ;
#180 = CARTESIAN_POINT ( 'NONE',  ( 295.3535678156408700, 33.42896463388353800, 0.0000000000000000000 ) ) ;
#181 = VERTEX_POINT ( 'NONE', #6 ) ;
#182 = PRESENTATION_LAYER_ASSIGNMENT (  '', '', ( #194 ) ) ;
#183 = VECTOR ( 'NONE', #132, 1000.000000000000000 ) ;
#184 = EDGE_CURVE ( 'NONE', #98, #143, #161, .T. ) ;
#185 = CARTESIAN_POINT ( 'NONE',  ( 142.3535678156410400, 39.67896463388353800, 0.0000000000000000000 ) ) ;
#186 =( LENGTH_UNIT ( ) NAMED_UNIT ( * ) SI_UNIT ( .MILLI., .METRE. ) );
#187 = ORIENTED_EDGE ( 'NONE', *, *, #77, .T. ) ;
#188 = DIRECTION ( 'NONE',  ( -0.0000000000000000000, -1.000000000000000000, -0.0000000000000000000 ) ) ;
#189 = DIRECTION ( 'NONE',  ( 0.0000000000000000000, -0.0000000000000000000, -1.000000000000000000 ) ) ;
#190 = CARTESIAN_POINT ( 'NONE',  ( 145.3535678156408700, 33.42896463388353800, 12.50000000000000000 ) ) ;
#191 = DIRECTION ( 'NONE',  ( -0.0000000000000000000, -0.0000000000000000000, -1.000000000000000000 ) ) ;
#192 = EDGE_CURVE ( 'NONE', #198, #98, #2, .T. ) ;
#193 = SURFACE_SIDE_STYLE ('',( #14 ) ) ;
#194 = STYLED_ITEM ( 'NONE', ( #89 ), #90 ) ;
#195 = FACE_OUTER_BOUND ( 'NONE', #56, .T. ) ;
#196 = FILL_AREA_STYLE ('',( #66 ) ) ;
#197 =( LENGTH_UNIT ( ) NAMED_UNIT ( * ) SI_UNIT ( .MILLI., .METRE. ) );
#198 = VERTEX_POINT ( 'NONE', #190 ) ;
#199 = PRESENTATION_STYLE_ASSIGNMENT (( #85 ) ) ;
#200 = VERTEX_POINT ( 'NONE', #102 ) ;
#201 = PRESENTATION_LAYER_ASSIGNMENT (  '', '', ( #126 ) ) ;
#202 = ORIENTED_EDGE ( 'NONE', *, *, #236, .T. ) ;
#203 = VECTOR ( 'NONE', #204, 1000.000000000000000 ) ;
#204 = DIRECTION ( 'NONE',  ( -0.0000000000000000000, -0.0000000000000000000, -1.000000000000000000 ) ) ;
#205 = EDGE_CURVE ( 'NONE', #198, #200, #148, .T. ) ;
#206 = UNCERTAINTY_MEASURE_WITH_UNIT (LENGTH_MEASURE( 1.000000000000000100E-005 ), #197, 'distance_accuracy_value', 'NONE');
#207 = DIRECTION ( 'NONE',  ( -1.000000000000000000, 0.0000000000000000000, 0.0000000000000000000 ) ) ;
#208 = CIRCLE ( 'NONE', #92, 149.9999999999999700 ) ;
#209 = ORIENTED_EDGE ( 'NONE', *, *, #192, .T. ) ;
#210 = MECHANICAL_DESIGN_GEOMETRIC_PRESENTATION_REPRESENTATION (  '', ( #194 ), #231 ) ;
#211 = DIRECTION ( 'NONE',  ( -2.216711407304828500E-015, 1.000000000000000000, 0.0000000000000000000 ) ) ;
#212 = EDGE_LOOP ( 'NONE', ( #20, #202, #111, #209, #141 ) ) ;
#213 = PLANE ( 'NONE',  #113 ) ;
#214 = CARTESIAN_POINT ( 'NONE',  ( 142.3535678156410400, 33.42896463388353800, 0.0000000000000000000 ) ) ;
#215 = VECTOR ( 'NONE', #82, 1000.000000000000000 ) ;
#216 = DIRECTION ( 'NONE',  ( 1.000000000000000000, 0.0000000000000000000, 0.0000000000000000000 ) ) ;
#217 = ADVANCED_FACE ( 'NONE', ( #195 ), #121, .F. ) ;
#218 = VECTOR ( 'NONE', #83, 1000.000000000000000 ) ;
#219 = ORIENTED_EDGE ( 'NONE', *, *, #16, .F. ) ;
#220 = AXIS2_PLACEMENT_3D ( 'NONE', #59, #134, #226 ) ;
#221 = EDGE_CURVE ( 'NONE', #40, #198, #208, .T. ) ;
#222 = EDGE_LOOP ( 'NONE', ( #237, #74, #9, #93 ) ) ;
#223 = EDGE_CURVE ( 'NONE', #200, #4, #57, .T. ) ;
#224 = CARTESIAN_POINT ( 'NONE',  ( 295.3535678156408700, 33.42896463388353800, 0.0000000000000000000 ) ) ;
#225 = PLANE ( 'NONE',  #48 ) ;
#226 = DIRECTION ( 'NONE',  ( 0.0000000000000000000, 0.0000000000000000000, -1.000000000000000000 ) ) ;
#227 = DIRECTION ( 'NONE',  ( -0.0000000000000000000, -0.0000000000000000000, -1.000000000000000000 ) ) ;
#228 = CARTESIAN_POINT ( 'NONE',  ( 142.3535678156410400, 39.67896463388353800, 12.50000000000000000 ) ) ;
#229 = PRODUCT_DEFINITION_CONTEXT ( 'detailed design', #138, 'design' ) ;
#230 = EDGE_CURVE ( 'NONE', #45, #172, #116, .T. ) ;
#231 =( GEOMETRIC_REPRESENTATION_CONTEXT ( 3 ) GLOBAL_UNCERTAINTY_ASSIGNED_CONTEXT ( ( #206 ) ) GLOBAL_UNIT_ASSIGNED_CONTEXT ( ( #197, #47, #68 ) ) REPRESENTATION_CONTEXT ( 'NONE', 'WORKASPACE' ) );
#232 = APPLICATION_PROTOCOL_DEFINITION ( 'draft international standard', 'automotive_design', 1998, #163 ) ;
#233 = ORIENTED_EDGE ( 'NONE', *, *, #230, .T. ) ;
#234 = LINE ( 'NONE', #150, #183 ) ;
#235 = PRODUCT_CONTEXT ( 'NONE', #163, 'mechanical' ) ;
#236 = EDGE_CURVE ( 'NONE', #181, #40, #18, .T. ) ;
#237 = ORIENTED_EDGE ( 'NONE', *, *, #24, .T. ) ;
#238 = MECHANICAL_DESIGN_GEOMETRIC_PRESENTATION_REPRESENTATION (  '', ( #126 ), #62 ) ;
#239 = EDGE_CURVE ( 'NONE', #40, #78, #51, .T. ) ;
ENDSEC;
END-ISO-10303-21;
