ISO-10303-21;
HEADER;
FILE_DESCRIPTION (( 'STEP AP203' ),
    '1' );
FILE_NAME ('280001.STEP',
    '2022-07-05T09:52:03',
    ( '' ),
    ( '' ),
    'SwSTEP 2.0',
    'SolidWorks 2020',
    '' );
FILE_SCHEMA (( 'CONFIG_CONTROL_DESIGN' ));
ENDSEC;

DATA;
#1 = LOCAL_TIME ( 17, 52, 3.000000000000000000, #67 ) ;
#2 = CARTESIAN_POINT ( 'NONE',  ( 3.169978860439628399, 4.129719961542315687, -4.709341189986943732 ) ) ;
#3 = CARTESIAN_POINT ( 'NONE',  ( 3.366371150557552649, -6.042058165131584779, 1.611886570809107022 ) ) ;
#4 = CARTESIAN_POINT ( 'NONE',  ( 3.109312515222734774, -3.308864592959788631, 5.306236430524929659 ) ) ;
#5 = CARTESIAN_POINT ( 'NONE',  ( 3.392115436687461294, -6.249623132268476766, -0.4189586741320514562 ) ) ;
#6 = DIRECTION ( 'NONE',  ( 0.000000000000000000, 0.000000000000000000, 1.000000000000000000 ) ) ;
#7 = PERSON_AND_ORGANIZATION_ROLE ( 'creator' ) ;
#8 = SHAPE_DEFINITION_REPRESENTATION ( #211, #23 ) ;
#9 = PERSON_AND_ORGANIZATION_ROLE ( 'design_supplier' ) ;
#10 = EDGE_LOOP ( 'NONE', ( #52 ) ) ;
#11 = CARTESIAN_POINT ( 'NONE',  ( 3.019745028881873239, 1.419178976933295866, 6.090151333832363179 ) ) ;
#12 = DATE_TIME_ROLE ( 'classification_date' ) ;
#13 = CARTESIAN_POINT ( 'NONE',  ( 3.221292577052167871, 4.707850120439153407, 4.130921053644175167 ) ) ;
#14 = CARTESIAN_POINT ( 'NONE',  ( 0.000000000000000000, 0.000000000000000000, 0.000000000000000000 ) ) ;
#15 = ORGANIZATION ( 'Î´Ö¸¶¨', 'Î´Ö¸¶¨', '' ) ;
#16 = FACE_OUTER_BOUND ( 'NONE', #164, .T. ) ;
#17 = CARTESIAN_POINT ( 'NONE',  ( 3.005197944347882899, 0.8249243327589581565, -6.208789041267772646 ) ) ;
#18 = CARTESIAN_POINT ( 'NONE',  ( 3.221717504641478769, 4.712556157976038662, -4.126050879762733992 ) ) ;
#19 = CARTESIAN_POINT ( 'NONE',  ( 3.247500804581955780, -4.974001560158709978, 3.806387175712804272 ) ) ;
#20 = AXIS2_PLACEMENT_3D ( 'NONE', #95, #139, #175 ) ;
#21 = CARTESIAN_POINT ( 'NONE',  ( 3.097884237695028631, 3.132354750153378831, -5.412293985247748296 ) ) ;
#22 = CC_DESIGN_DATE_AND_TIME_ASSIGNMENT ( #96, #137, ( #144 ) ) ;
#23 = ADVANCED_BREP_SHAPE_REPRESENTATION ( '280001', ( #184, #111 ), #85 ) ;
#24 = CC_DESIGN_APPROVAL ( #65, ( #81 ) ) ;
#25 =( LENGTH_UNIT ( ) NAMED_UNIT ( * ) SI_UNIT ( .MILLI., .METRE. ) );
#26 = DIRECTION ( 'NONE',  ( 0.000000000000000000, 0.000000000000000000, 1.000000000000000000 ) ) ;
#27 = COORDINATED_UNIVERSAL_TIME_OFFSET ( 8, 0, .AHEAD. ) ;
#28 = PERSON_AND_ORGANIZATION_ROLE ( 'classification_officer' ) ;
#29 = CC_DESIGN_PERSON_AND_ORGANIZATION_ASSIGNMENT ( #109, #7, ( #144 ) ) ;
#30 = PERSON_AND_ORGANIZATION_ROLE ( 'creator' ) ;
#31 = CIRCLE ( 'NONE', #154, 6.250000000000000000 ) ;
#32 = LOCAL_TIME ( 17, 52, 3.000000000000000000, #182 ) ;
#33 = CARTESIAN_POINT ( 'NONE',  ( 3.170184880352908685, 4.131959655871622950, 4.706938592143401046 ) ) ;
#34 = DATE_AND_TIME ( #112, #32 ) ;
#35 = DESIGN_CONTEXT ( 'detailed design', #118, 'design' ) ;
#36 = EDGE_LOOP ( 'NONE', ( #146 ) ) ;
#37 = CARTESIAN_POINT ( 'NONE',  ( 3.392209752539379508, -6.250371741446946849, 0.4076380253817690758 ) ) ;
#38 = CARTESIAN_POINT ( 'NONE',  ( 3.109209399036241273, 3.307225943862123874, -5.307179619147926353 ) ) ;
#39 = CARTESIAN_POINT ( 'NONE',  ( 3.040004048565408734, -2.009274666578994228, -5.921753854629139724 ) ) ;
#40 = CARTESIAN_POINT ( 'NONE',  ( 3.387094234174543139, -6.210148211859126910, 0.8140239440880218114 ) ) ;
#41 = CARTESIAN_POINT ( 'NONE',  ( 3.000000000000003553, -0.4133376207728050034, 6.250000000000000000 ) ) ;
#42 = PRODUCT ( '280001', '280001', '', ( #77 ) ) ;
#43 = CARTESIAN_POINT ( 'NONE',  ( 3.000000000000002665, 0.000000000000000000, 6.250000000000000000 ) ) ;
#44 = CC_DESIGN_SECURITY_CLASSIFICATION ( #81, ( #166 ) ) ;
#45 = APPROVAL_STATUS ( 'not_yet_approved' ) ;
#46 = CARTESIAN_POINT ( 'NONE',  ( 53.00000000000000711, 0.000000000000000000, -6.250000000000000000 ) ) ;
#47 = VERTEX_POINT ( 'NONE', #43 ) ;
#48 = CARTESIAN_POINT ( 'NONE',  ( 3.372181952298484386, 6.089442885096675084, 1.422496568807444906 ) ) ;
#49 = EDGE_CURVE ( 'NONE', #140, #140, #31, .T. ) ;
#50 = PERSON_AND_ORGANIZATION ( #150, #15 ) ;
#51 = CARTESIAN_POINT ( 'NONE',  ( 3.000000000000002665, 1.084202172485504434E-16, 6.250000000000000000 ) ) ;
#52 = ORIENTED_EDGE ( 'NONE', *, *, #49, .F. ) ;
#53 = CARTESIAN_POINT ( 'NONE',  ( 3.000000000000002220, 0.4133376207728052254, 6.250000000000000000 ) ) ;
#54 = APPLICATION_CONTEXT ( 'configuration controlled 3d designs of mechanical parts and assemblies' ) ;
#55 = CARTESIAN_POINT ( 'NONE',  ( 3.294876387132983364, -5.427020760983338299, 3.126774777905825253 ) ) ;
#56 = CARTESIAN_POINT ( 'NONE',  ( 3.325548834104404161, 5.696939309197734502, -2.578632949253364615 ) ) ;
#57 = CC_DESIGN_PERSON_AND_ORGANIZATION_ASSIGNMENT ( #179, #9, ( #166 ) ) ;
#58 = CARTESIAN_POINT ( 'NONE',  ( 3.316450164285491109, -5.618693838364089643, 2.767762618819125997 ) ) ;
#59 = CARTESIAN_POINT ( 'NONE',  ( 3.075998766224442349, -2.761660395154477587, -5.610486015386805470 ) ) ;
#60 = CARTESIAN_POINT ( 'NONE',  ( 3.097848573692723040, -3.131747508370190669, 5.412616473438410125 ) ) ;
#61 = B_SPLINE_CURVE_WITH_KNOTS ( 'NONE', 3,
 ( #51, #53, #86, #11, #180, #83, #163, #147, #181, #165, #33, #13, #84, #148, #117, #214, #68, #130, #149, #48, #113, #178, #145, #73, #104, #132, #56, #157, #103, #136, #151, #18, #2, #168, #38, #21, #156, #204, #135, #120, #17, #92, #171, #72, #155, #187, #39, #203, #59, #122, #170, #89, #121, #106, #186, #215, #169, #90, #188, #200, #153, #70, #5, #37, #40, #131, #3, #105, #134, #58, #55, #19, #119, #183, #91, #4, #60, #74, #205, #123, #102, #189, #41, #167 ),
 .UNSPECIFIED., .T., .F.,
 ( 4, 2, 2, 2, 2, 2, 2, 2, 1, 2, 2, 2, 2, 2, 2, 2, 2, 2, 2, 2, 2, 2, 2, 2, 1, 2, 2, 2, 2, 2, 2, 2, 2, 2, 2, 2, 2, 2, 2, 2, 2, 2, 4 ),
 ( 0.000000000000000000, 0.001222320690630705883, 0.001833481035946058499, 0.002444641381261411332, 0.003666962071892118299, 0.004889282762522823532, 0.006111603453153529632, 0.006722763798468882682, 0.007333924143784236599, 0.007945084489099588781, 0.008556244834414942699, 0.009778565525045647064, 0.01100088621567635316, 0.01222320690630705926, 0.01283436725162241145, 0.01344552759693776536, 0.01466784828756846799, 0.01589016897819917756, 0.01650132932351452975, 0.01711248966882988193, 0.01833481035946058629, 0.01955713105009128719, 0.02077945174072199155, 0.02139061208603734374, 0.02200177243135269592, 0.02261293277666805157, 0.02322409312198340375, 0.02444641381261410812, 0.02566873450324481595, 0.02689105519387552032, 0.02750221553919087250, 0.02811337588450622468, 0.02933569657513693252, 0.03055801726576764035, 0.03116917761108299600, 0.03178033795639834819, 0.03300265864702905255, 0.03422497933765975692, 0.03544730002829046128, 0.03605846037360582040, 0.03666962071892117259, 0.03789194140955187695, 0.03911426210018258132 ),
 .UNSPECIFIED. ) ;
#62 = PLANE ( 'NONE',  #20 ) ;
#63 = CARTESIAN_POINT ( 'NONE',  ( 0.000000000000000000, 0.000000000000000000, 0.000000000000000000 ) ) ;
#64 = CYLINDRICAL_SURFACE ( 'NONE', #174, 50.00000000000000000 ) ;
#65 = APPROVAL ( #127, 'Î´Ö¸¶¨' ) ;
#66 = APPROVAL_ROLE ( '' ) ;
#67 = COORDINATED_UNIVERSAL_TIME_OFFSET ( 8, 0, .AHEAD. ) ;
#68 = CARTESIAN_POINT ( 'NONE',  ( 3.335289742750228381, 5.782290573237026443, 2.398256570521488662 ) ) ;
#69 = DIRECTION ( 'NONE',  ( 1.000000000000000000, 0.000000000000000000, 0.000000000000000000 ) ) ;
#70 = CARTESIAN_POINT ( 'NONE',  ( 3.386905297710422147, -6.208647693790060984, -0.8253354115065332230 ) ) ;
#71 = CLOSED_SHELL ( 'NONE', ( #161, #185, #209 ) ) ;
#72 = CARTESIAN_POINT ( 'NONE',  ( 3.004957013727444615, -0.8115724958838866909, -6.210726664683897447 ) ) ;
#73 = CARTESIAN_POINT ( 'NONE',  ( 3.387020305284277555, 6.209566087846748239, -0.8190896404541814224 ) ) ;
#74 = CARTESIAN_POINT ( 'NONE',  ( 3.076544688398437533, -2.771492229973957944, 5.605630237887060829 ) ) ;
#75 = CALENDAR_DATE ( 2022, 5, 7 ) ;
#76 = CC_DESIGN_APPROVAL ( #107, ( #144 ) ) ;
#77 = MECHANICAL_CONTEXT ( 'NONE', #54, 'mechanical' ) ;
#78 = PERSON_AND_ORGANIZATION ( #150, #15 ) ;
#79 = APPROVAL_STATUS ( 'not_yet_approved' ) ;
#80 = DATE_AND_TIME ( #141, #100 ) ;
#81 = SECURITY_CLASSIFICATION ( '', '', #128 ) ;
#82 = EDGE_LOOP ( 'NONE', ( #198 ) ) ;
#83 = CARTESIAN_POINT ( 'NONE',  ( 3.040037710578583408, 2.010174526692265928, 5.921471879066924515 ) ) ;
#84 = CARTESIAN_POINT ( 'NONE',  ( 3.246734024878692892, 4.966415691333307514, 3.816548051521984064 ) ) ;
#85 =( GEOMETRIC_REPRESENTATION_CONTEXT ( 3 ) GLOBAL_UNCERTAINTY_ASSIGNED_CONTEXT ( ( #162 ) ) GLOBAL_UNIT_ASSIGNED_CONTEXT ( ( #25, #98, #213 ) ) REPRESENTATION_CONTEXT ( 'NONE', 'WORKASPACE' ) );
#86 = CARTESIAN_POINT ( 'NONE',  ( 3.005120905505725748, 0.8196878144086899853, 6.209401004695068949 ) ) ;
#87 = EDGE_CURVE ( 'NONE', #47, #47, #61, .T. ) ;
#88 = CYLINDRICAL_SURFACE ( 'NONE', #116, 6.250000000000000000 ) ;
#89 = CARTESIAN_POINT ( 'NONE',  ( 3.144371822505658720, -3.812286880105875131, -4.969667954795968789 ) ) ;
#90 = CARTESIAN_POINT ( 'NONE',  ( 3.343302433960765985, -5.849671337964521989, -2.210385202436395691 ) ) ;
#91 = CARTESIAN_POINT ( 'NONE',  ( 3.145038301549380133, -3.820984747291739758, 4.963012730756919844 ) ) ;
#92 = CARTESIAN_POINT ( 'NONE',  ( 3.000019194522764554, 0.4104124332361522853, -6.249846443807249408 ) ) ;
#93 = APPROVAL_ROLE ( '' ) ;
#94 = CC_DESIGN_PERSON_AND_ORGANIZATION_ASSIGNMENT ( #143, #30, ( #166 ) ) ;
#95 = CARTESIAN_POINT ( 'NONE',  ( 0.000000000000000000, 0.000000000000000000, 0.000000000000000000 ) ) ;
#96 = DATE_AND_TIME ( #75, #138 ) ;
#97 = COORDINATED_UNIVERSAL_TIME_OFFSET ( 8, 0, .AHEAD. ) ;
#98 =( NAMED_UNIT ( * ) PLANE_ANGLE_UNIT ( ) SI_UNIT ( $, .RADIAN. ) );
#99 = PERSON_AND_ORGANIZATION ( #150, #15 ) ;
#100 = LOCAL_TIME ( 17, 52, 3.000000000000000000, #97 ) ;
#101 = APPROVAL_DATE_TIME ( #142, #65 ) ;
#102 = CARTESIAN_POINT ( 'NONE',  ( 3.024939461774491356, -1.629913309532588395, 6.047777095571917449 ) ) ;
#103 = CARTESIAN_POINT ( 'NONE',  ( 3.293994487423175688, 5.415023285174418000, -3.127629413583454365 ) ) ;
#104 = CARTESIAN_POINT ( 'NONE',  ( 3.367305410251564268, 6.049966359275672723, -1.620964493771648751 ) ) ;
#105 = CARTESIAN_POINT ( 'NONE',  ( 3.352053441278584955, -5.923257730116206154, 2.004909736274076870 ) ) ;
#106 = CARTESIAN_POINT ( 'NONE',  ( 3.220884720356287367, -4.703560355963968931, -4.135818361115859432 ) ) ;
#107 = APPROVAL ( #45, 'Î´Ö¸¶¨' ) ;
#108 = FACE_OUTER_BOUND ( 'NONE', #10, .T. ) ;
#109 = PERSON_AND_ORGANIZATION ( #150, #15 ) ;
#110 = APPLICATION_PROTOCOL_DEFINITION ( 'international standard', 'config_control_design', 1994, #118 ) ;
#111 = AXIS2_PLACEMENT_3D ( 'NONE', #63, #26, #192 ) ;
#112 = CALENDAR_DATE ( 2022, 5, 7 ) ;
#113 = CARTESIAN_POINT ( 'NONE',  ( 3.387070464600257402, 6.209974091890607895, 0.8172920741944978973 ) ) ;
#114 = CC_DESIGN_DATE_AND_TIME_ASSIGNMENT ( #34, #12, ( #81 ) ) ;
#115 = ORIENTED_EDGE ( 'NONE', *, *, #49, .T. ) ;
#116 = AXIS2_PLACEMENT_3D ( 'NONE', #212, #176, #6 ) ;
#117 = CARTESIAN_POINT ( 'NONE',  ( 3.294032310772617933, 5.415364834894777601, 3.126994918967243020 ) ) ;
#118 = APPLICATION_CONTEXT ( 'configuration controlled 3d designs of mechanical parts and assemblies' ) ;
#119 = CARTESIAN_POINT ( 'NONE',  ( 3.221553807298665806, -4.710597957305481920, 4.127783607397992327 ) ) ;
#120 = CARTESIAN_POINT ( 'NONE',  ( 3.024854299237430766, 1.626513118965669635, -6.048472252360688195 ) ) ;
#121 = CARTESIAN_POINT ( 'NONE',  ( 3.169760284843992082, -4.126864181959828848, -4.711418635824671242 ) ) ;
#122 = CARTESIAN_POINT ( 'NONE',  ( 3.097269011572286068, -3.122516168861970698, -5.417952956810464293 ) ) ;
#123 = CARTESIAN_POINT ( 'NONE',  ( 3.039556378338909681, -2.023764199852177814, 5.927268863820474465 ) ) ;
#124 = APPLICATION_PROTOCOL_DEFINITION ( 'international standard', 'config_control_design', 1994, #54 ) ;
#125 = APPROVAL_ROLE ( '' ) ;
#126 = APPROVAL_DATE_TIME ( #80, #129 ) ;
#127 = APPROVAL_STATUS ( 'not_yet_approved' ) ;
#128 = SECURITY_CLASSIFICATION_LEVEL ( 'unclassified' ) ;
#129 = APPROVAL ( #79, 'Î´Ö¸¶¨' ) ;
#130 = CARTESIAN_POINT ( 'NONE',  ( 3.351655875614564462, 5.919925791634671697, 2.014652253398018011 ) ) ;
#131 = CARTESIAN_POINT ( 'NONE',  ( 3.372426636831322710, -6.091432665538923708, 1.413671471702955929 ) ) ;
#132 = CARTESIAN_POINT ( 'NONE',  ( 3.352868930846875983, 5.931883436552636724, -2.010751206336166774 ) ) ;
#133 = CC_DESIGN_APPROVAL ( #129, ( #166 ) ) ;
#134 = CARTESIAN_POINT ( 'NONE',  ( 3.343759427518300242, -5.853544515045679297, 2.200102088819838819 ) ) ;
#135 = CARTESIAN_POINT ( 'NONE',  ( 3.039226612860379539, 2.016073241485925482, -5.930064322725786319 ) ) ;
#136 = CARTESIAN_POINT ( 'NONE',  ( 3.282639043474516072, 5.310078625420521448, -3.302570187784101829 ) ) ;
#137 = DATE_TIME_ROLE ( 'creation_date' ) ;
#138 = LOCAL_TIME ( 17, 52, 3.000000000000000000, #194 ) ;
#139 = DIRECTION ( 'NONE',  ( 1.000000000000000000, 0.000000000000000000, 0.000000000000000000 ) ) ;
#140 = VERTEX_POINT ( 'NONE', #190 ) ;
#141 = CALENDAR_DATE ( 2022, 5, 7 ) ;
#142 = DATE_AND_TIME ( #195, #1 ) ;
#143 = PERSON_AND_ORGANIZATION ( #150, #15 ) ;
#144 = PRODUCT_DEFINITION ( 'Î´Öª', '', #166, #35 ) ;
#145 = CARTESIAN_POINT ( 'NONE',  ( 3.392191362239624031, 6.250225772847907812, -0.4045651590852583079 ) ) ;
#146 = ORIENTED_EDGE ( 'NONE', *, *, #87, .T. ) ;
#147 = CARTESIAN_POINT ( 'NONE',  ( 3.075508773847470678, 2.772841313881539094, 5.616192699411516109 ) ) ;
#148 = CARTESIAN_POINT ( 'NONE',  ( 3.282531155140339330, 5.309094241297729333, 3.304273641694005725 ) ) ;
#149 = CARTESIAN_POINT ( 'NONE',  ( 3.365997948884249080, 6.038992967515086185, 1.623240283780082116 ) ) ;
#150 = PERSON ( 'Î´Ö¸¶¨', 'Î´Ö¸¶¨', 'Î´Ö¸¶¨', ('Î´Ö¸¶¨'), ('Î´Ö¸¶¨'), ('Î´Ö¸¶¨') ) ;
#151 = CARTESIAN_POINT ( 'NONE',  ( 3.247201516772625141, 4.970986325241718795, -3.810172485309913704 ) ) ;
#152 = CC_DESIGN_PERSON_AND_ORGANIZATION_ASSIGNMENT ( #50, #28, ( #81 ) ) ;
#153 = CARTESIAN_POINT ( 'NONE',  ( 3.372113516974309722, -6.088883416432396167, -1.424603426525208105 ) ) ;
#154 = AXIS2_PLACEMENT_3D ( 'NONE', #14, #69, #197 ) ;
#155 = CARTESIAN_POINT ( 'NONE',  ( 3.019673700269315031, -1.416942571622969771, -6.090738268354271234 ) ) ;
#156 = CARTESIAN_POINT ( 'NONE',  ( 3.076501033352047276, 2.770749855615897594, -5.606025124913539770 ) ) ;
#157 = CARTESIAN_POINT ( 'NONE',  ( 3.315439114630048589, 5.608375060858966421, -2.765984834453858898 ) ) ;
#158 = DATE_AND_TIME ( #173, #177 ) ;
#159 = PERSON_AND_ORGANIZATION ( #150, #15 ) ;
#160 = APPROVAL_DATE_TIME ( #158, #107 ) ;
#161 = ADVANCED_FACE ( 'NONE', ( #202, #16 ), #88, .T. ) ;
#162 = UNCERTAINTY_MEASURE_WITH_UNIT (LENGTH_MEASURE( 1.000000000000000082E-05 ), #25, 'distance_accuracy_value', 'NONE');
#163 = CARTESIAN_POINT ( 'NONE',  ( 3.048299250437890962, 2.205325488841422210, 5.851579430845078811 ) ) ;
#164 = EDGE_LOOP ( 'NONE', ( #115 ) ) ;
#165 = CARTESIAN_POINT ( 'NONE',  ( 3.144267553225758238, 3.810746481187199830, 4.970656276386254291 ) ) ;
#166 = PRODUCT_DEFINITION_FORMATION_WITH_SPECIFIED_SOURCE ( 'ÈÎºÎ', '', #42, .NOT_KNOWN. ) ;
#167 = CARTESIAN_POINT ( 'NONE',  ( 3.000000000000002665, 1.084202172485504434E-16, 6.250000000000000000 ) ) ;
#168 = CARTESIAN_POINT ( 'NONE',  ( 3.144563519467359569, 3.814495283448225305, -4.967667616413828924 ) ) ;
#169 = CARTESIAN_POINT ( 'NONE',  ( 3.315888802288127213, -5.613747963933194640, -2.777798376205466546 ) ) ;
#170 = CARTESIAN_POINT ( 'NONE',  ( 3.108726902822284366, -3.300025272635107587, -5.311731441748354321 ) ) ;
#171 = CARTESIAN_POINT ( 'NONE',  ( 2.999980915471178733, -0.4057221465491804291, -6.250152676241154559 ) ) ;
#172 = FACE_OUTER_BOUND ( 'NONE', #82, .T. ) ;
#173 = CALENDAR_DATE ( 2022, 5, 7 ) ;
#174 = AXIS2_PLACEMENT_3D ( 'NONE', #46, #210, #207 ) ;
#175 = DIRECTION ( 'NONE',  ( 0.000000000000000000, 0.000000000000000000, -1.000000000000000000 ) ) ;
#176 = DIRECTION ( 'NONE',  ( -1.000000000000000000, -0.000000000000000000, -0.000000000000000000 ) ) ;
#177 = LOCAL_TIME ( 17, 52, 3.000000000000000000, #27 ) ;
#178 = CARTESIAN_POINT ( 'NONE',  ( 3.392134229698560599, 6.249772297290507872, 0.4115111317304406824 ) ) ;
#179 = PERSON_AND_ORGANIZATION ( #150, #15 ) ;
#180 = CARTESIAN_POINT ( 'NONE',  ( 3.025777700108906565, 1.617324676507535086, 6.040603590130929845 ) ) ;
#181 = CARTESIAN_POINT ( 'NONE',  ( 3.097008845398767640, 3.131664153770286951, 5.424195072989993704 ) ) ;
#182 = COORDINATED_UNIVERSAL_TIME_OFFSET ( 8, 0, .AHEAD. ) ;
#183 = CARTESIAN_POINT ( 'NONE',  ( 3.170450659816920869, -4.135148247559292223, 4.704134308837437217 ) ) ;
#184 = MANIFOLD_SOLID_BREP ( 'ÇÐ³ý-À­Éì1', #71 ) ;
#185 = ADVANCED_FACE ( 'NONE', ( #108 ), #62, .F. ) ;
#186 = CARTESIAN_POINT ( 'NONE',  ( 3.246859346422803050, -4.967600329600635689, -3.814705197725272168 ) ) ;
#187 = CARTESIAN_POINT ( 'NONE',  ( 3.025792882516522120, -1.617715405125568218, -6.040475996855764862 ) ) ;
#188 = CARTESIAN_POINT ( 'NONE',  ( 3.351633516220775988, -5.919740133442168428, -2.015261361636029314 ) ) ;
#189 = CARTESIAN_POINT ( 'NONE',  ( 3.005123598784840144, -0.8219652201373496281, 6.209395974746685809 ) ) ;
#190 = CARTESIAN_POINT ( 'NONE',  ( 0.000000000000000000, 0.000000000000000000, -6.250000000000000000 ) ) ;
#191 = CC_DESIGN_PERSON_AND_ORGANIZATION_ASSIGNMENT ( #208, #193, ( #42 ) ) ;
#192 = DIRECTION ( 'NONE',  ( 1.000000000000000000, 0.000000000000000000, 0.000000000000000000 ) ) ;
#193 = PERSON_AND_ORGANIZATION_ROLE ( 'design_owner' ) ;
#194 = COORDINATED_UNIVERSAL_TIME_OFFSET ( 8, 0, .AHEAD. ) ;
#195 = CALENDAR_DATE ( 2022, 5, 7 ) ;
#196 = APPROVAL_PERSON_ORGANIZATION ( #159, #129, #125 ) ;
#197 = DIRECTION ( 'NONE',  ( 0.000000000000000000, 0.000000000000000000, -1.000000000000000000 ) ) ;
#198 = ORIENTED_EDGE ( 'NONE', *, *, #87, .F. ) ;
#199 = PRODUCT_RELATED_PRODUCT_CATEGORY ( 'detail', '', ( #42 ) ) ;
#200 = CARTESIAN_POINT ( 'NONE',  ( 3.366019556405165147, -6.039172383694940471, -1.622651694975062009 ) ) ;
#201 = APPROVAL_PERSON_ORGANIZATION ( #99, #65, #66 ) ;
#202 = FACE_OUTER_BOUND ( 'NONE', #36, .T. ) ;
#203 = CARTESIAN_POINT ( 'NONE',  ( 3.056236609245785552, -2.393088277390322371, -5.784438693380776542 ) ) ;
#204 = CARTESIAN_POINT ( 'NONE',  ( 3.066430350264186533, 2.583501349723064333, -5.694729960468217556 ) ) ;
#205 = CARTESIAN_POINT ( 'NONE',  ( 3.066639913178313304, -2.587457737287199411, 5.692887833771832717 ) ) ;
#206 = APPROVAL_PERSON_ORGANIZATION ( #78, #107, #93 ) ;
#207 = DIRECTION ( 'NONE',  ( 1.000000000000000000, 0.000000000000000000, 0.000000000000000000 ) ) ;
#208 = PERSON_AND_ORGANIZATION ( #150, #15 ) ;
#209 = ADVANCED_FACE ( 'NONE', ( #172 ), #64, .F. ) ;
#210 = DIRECTION ( 'NONE',  ( -0.000000000000000000, -0.000000000000000000, 1.000000000000000000 ) ) ;
#211 = PRODUCT_DEFINITION_SHAPE ( 'NONE', 'NONE',  #144 ) ;
#212 = CARTESIAN_POINT ( 'NONE',  ( 10.00000000000000000, 0.000000000000000000, 0.000000000000000000 ) ) ;
#213 =( NAMED_UNIT ( * ) SI_UNIT ( $, .STERADIAN. ) SOLID_ANGLE_UNIT ( ) );
#214 = CARTESIAN_POINT ( 'NONE',  ( 3.315408246727967967, 5.608092584586570339, 2.766509024979056264 ) ) ;
#215 = CARTESIAN_POINT ( 'NONE',  ( 3.294267114197612756, -5.421455175001213433, -3.136375705436625694 ) ) ;
ENDSEC;
END-ISO-10303-21;
