ISO-10303-21;
HEADER;
FILE_DESCRIPTION (( 'STEP AP203' ),
    '1' );
FILE_NAME ('280003.STEP',
    '2022-07-05T09:58:19',
    ( '' ),
    ( '' ),
    'SwSTEP 2.0',
    'SolidWorks 2020',
    '' );
FILE_SCHEMA (( 'CONFIG_CONTROL_DESIGN' ));
ENDSEC;

DATA;
#1 = FACE_OUTER_BOUND ( 'NONE', #107, .T. ) ;
#2 = SECURITY_CLASSIFICATION_LEVEL ( 'unclassified' ) ;
#3 = CC_DESIGN_APPROVAL ( #205, ( #119 ) ) ;
#4 = SHAPE_DEFINITION_REPRESENTATION ( #24, #17 ) ;
#5 = APPROVAL_DATE_TIME ( #139, #205 ) ;
#6 = CARTESIAN_POINT ( 'NONE',  ( 3.056633313558873688, 4.131578849872947323, 4.707308833804610515 ) ) ;
#7 = CARTESIAN_POINT ( 'NONE',  ( 3.025002118764815062, -2.764336164027033416, -5.620199886259965361 ) ) ;
#8 = CARTESIAN_POINT ( 'NONE',  ( 3.006570770772518220, 1.418123528500073949, 6.090392838969060030 ) ) ;
#9 = AXIS2_PLACEMENT_3D ( 'NONE', #83, #137, #164 ) ;
#10 = CARTESIAN_POINT ( 'NONE',  ( 3.128530396940573333, -6.208781825948726407, -0.8243001132414344845 ) ) ;
#11 = CARTESIAN_POINT ( 'NONE',  ( 3.082349679084590122, -4.974875970777765666, 3.805214135469834780 ) ) ;
#12 = CARTESIAN_POINT ( 'NONE',  ( 3.111451685404654999, 5.782834693116042146, 2.396952499236462586 ) ) ;
#13 = CARTESIAN_POINT ( 'NONE',  ( 3.008313914824256141, -1.630211143360133619, 6.047720604388390875 ) ) ;
#14 = ADVANCED_FACE ( 'NONE', ( #74 ), #206, .F. ) ;
#15 = DIRECTION ( 'NONE',  ( 0.000000000000000000, 0.000000000000000000, -1.000000000000000000 ) ) ;
#16 = APPROVAL_STATUS ( 'not_yet_approved' ) ;
#17 = ADVANCED_BREP_SHAPE_REPRESENTATION ( '280003', ( #82, #135 ), #122 ) ;
#18 = EDGE_CURVE ( 'NONE', #136, #136, #89, .T. ) ;
#19 = APPROVAL_DATE_TIME ( #167, #125 ) ;
#20 = PERSON_AND_ORGANIZATION ( #127, #154 ) ;
#21 = PERSON_AND_ORGANIZATION_ROLE ( 'creator' ) ;
#22 = CARTESIAN_POINT ( 'NONE',  ( 3.032581414445325141, 3.131458706225093813, -5.412808134873665189 ) ) ;
#23 = CARTESIAN_POINT ( 'NONE',  ( 3.032580706139802906, -3.131412441206292918, 5.412825840551484191 ) ) ;
#24 = PRODUCT_DEFINITION_SHAPE ( 'NONE', 'NONE',  #115 ) ;
#25 = CARTESIAN_POINT ( 'NONE',  ( 3.105025925416621480, -5.614396215631753506, -2.776418809593154791 ) ) ;
#26 = DIRECTION ( 'NONE',  ( 1.000000000000000000, 0.000000000000000000, 0.000000000000000000 ) ) ;
#27 = CC_DESIGN_APPROVAL ( #125, ( #115 ) ) ;
#28 = CARTESIAN_POINT ( 'NONE',  ( 3.114096022354924997, -5.849954121674599605, -2.209614976051959001 ) ) ;
#29 = CARTESIAN_POINT ( 'NONE',  ( 3.032287489603964659, 3.130598706301235712, 5.424818918240058352 ) ) ;
#30 = CARTESIAN_POINT ( 'NONE',  ( 3.093996360119068978, 5.310637958905883416, -3.301679076733830875 ) ) ;
#31 = APPLICATION_CONTEXT ( 'configuration controlled 3d designs of mechanical parts and assemblies' ) ;
#32 = DATE_AND_TIME ( #181, #171 ) ;
#33 = ADVANCED_FACE ( 'NONE', ( #186, #86 ), #134, .T. ) ;
#34 = AXIS2_PLACEMENT_3D ( 'NONE', #114, #182, #69 ) ;
#35 = CYLINDRICAL_SURFACE ( 'NONE', #9, 150.0000000000000568 ) ;
#36 = PERSON_AND_ORGANIZATION_ROLE ( 'design_owner' ) ;
#37 =( NAMED_UNIT ( * ) SI_UNIT ( $, .STERADIAN. ) SOLID_ANGLE_UNIT ( ) );
#38 = LOCAL_TIME ( 17, 58, 19.00000000000000000, #87 ) ;
#39 = PERSON_AND_ORGANIZATION_ROLE ( 'design_supplier' ) ;
#40 = APPROVAL_STATUS ( 'not_yet_approved' ) ;
#41 = CC_DESIGN_PERSON_AND_ORGANIZATION_ASSIGNMENT ( #72, #39, ( #119 ) ) ;
#42 = SECURITY_CLASSIFICATION ( '', '', #2 ) ;
#43 = CARTESIAN_POINT ( 'NONE',  ( 3.025470093436210650, 2.770027102568962896, -5.606378098628460371 ) ) ;
#44 = CARTESIAN_POINT ( 'NONE',  ( 3.022116211375757810, 2.582678410566801031, -5.695109835294276834 ) ) ;
#45 = CARTESIAN_POINT ( 'NONE',  ( 3.105206637582535123, -5.619209304645831793, 2.766805904726788778 ) ) ;
#46 = APPROVAL_PERSON_ORGANIZATION ( #101, #125, #147 ) ;
#47 = PRODUCT ( '280003', '280003', '', ( #116 ) ) ;
#48 = EDGE_LOOP ( 'NONE', ( #143 ) ) ;
#49 = CARTESIAN_POINT ( 'NONE',  ( 3.082108182644285321, -4.967638121418769259, -3.814729931110847794 ) ) ;
#50 = CARTESIAN_POINT ( 'NONE',  ( 2.999999999999974243, 0.4129532079345052398, 6.249999999999999112 ) ) ;
#51 = CARTESIAN_POINT ( 'NONE',  ( 3.117008934426282352, -5.923892597626774226, 2.002992337561580349 ) ) ;
#52 = CARTESIAN_POINT ( 'NONE',  ( 3.097764692203632375, 5.415645901410620411, -3.126565627378187440 ) ) ;
#53 = CARTESIAN_POINT ( 'NONE',  ( 2.999999999999974243, 4.607859233063393845E-16, 6.250000000000000000 ) ) ;
#54 = CARTESIAN_POINT ( 'NONE',  ( 2.999999999999974687, -0.4129532079345027973, 6.250000000000000000 ) ) ;
#55 = DIRECTION ( 'NONE',  ( 0.000000000000000000, 0.000000000000000000, 1.000000000000000000 ) ) ;
#56 = VERTEX_POINT ( 'NONE', #67 ) ;
#57 = CLOSED_SHELL ( 'NONE', ( #33, #14, #151 ) ) ;
#58 = CC_DESIGN_SECURITY_CLASSIFICATION ( #42, ( #119 ) ) ;
#59 = CARTESIAN_POINT ( 'NONE',  ( 3.008269228856273347, 1.625120639062666461, -6.048817284266545080 ) ) ;
#60 = CARTESIAN_POINT ( 'NONE',  ( 3.006542845770592720, -1.415412557771683844, -6.091081790922079797 ) ) ;
#61 = CARTESIAN_POINT ( 'NONE',  ( 3.008578354076844263, 1.616163718319878928, 6.040910625736280792 ) ) ;
#62 = LOCAL_TIME ( 17, 58, 19.00000000000000000, #103 ) ;
#63 = CARTESIAN_POINT ( 'NONE',  ( 3.123739310831556981, -6.091637346038565326, 1.412761535022757586 ) ) ;
#64 = CARTESIAN_POINT ( 'NONE',  ( 3.130255786905771664, 6.249781560113061296, 0.4109818668275244669 ) ) ;
#65 = CARTESIAN_POINT ( 'NONE',  ( 3.056719760220932613, -4.134713589860638194, 4.704578116315062175 ) ) ;
#66 = CARTESIAN_POINT ( 'NONE',  ( 3.130282127611766718, -6.250413188296418454, 0.4059302162941613168 ) ) ;
#67 = CARTESIAN_POINT ( 'NONE',  ( 0.000000000000000000, 0.000000000000000000, -6.250000000000000000 ) ) ;
#68 = CARTESIAN_POINT ( 'NONE',  ( 0.000000000000000000, 0.000000000000000000, 0.000000000000000000 ) ) ;
#69 = DIRECTION ( 'NONE',  ( 0.000000000000000000, 0.000000000000000000, 1.000000000000000000 ) ) ;
#70 = PERSON_AND_ORGANIZATION ( #127, #154 ) ;
#71 = LOCAL_TIME ( 17, 58, 19.00000000000000000, #117 ) ;
#72 = PERSON_AND_ORGANIZATION ( #127, #154 ) ;
#73 = APPROVAL_ROLE ( '' ) ;
#74 = FACE_OUTER_BOUND ( 'NONE', #175, .T. ) ;
#75 = CARTESIAN_POINT ( 'NONE',  ( 3.108227529061155625, 5.697602347939378475, -2.577156618490339834 ) ) ;
#76 = CC_DESIGN_PERSON_AND_ORGANIZATION_ASSIGNMENT ( #150, #199, ( #115 ) ) ;
#77 = CARTESIAN_POINT ( 'NONE',  ( 3.093953218261200178, 5.309444537896007787, 3.303712545355422137 ) ) ;
#78 = CC_DESIGN_PERSON_AND_ORGANIZATION_ASSIGNMENT ( #20, #152, ( #42 ) ) ;
#79 = CARTESIAN_POINT ( 'NONE',  ( 3.116869074409242213, 5.920355189940812224, 2.013379395289426110 ) ) ;
#80 = CARTESIAN_POINT ( 'NONE',  ( 3.013314527831549849, -2.008122334292048894, -5.922147864622821167 ) ) ;
#81 = DATE_TIME_ROLE ( 'creation_date' ) ;
#82 = MANIFOLD_SOLID_BREP ( 'ÇÐ³ý-À­Éì1', #57 ) ;
#83 = CARTESIAN_POINT ( 'NONE',  ( 153.0000000000000000, 0.000000000000000000, -6.250000000000000000 ) ) ;
#84 =( LENGTH_UNIT ( ) NAMED_UNIT ( * ) SI_UNIT ( .MILLI., .METRE. ) );
#85 = UNCERTAINTY_MEASURE_WITH_UNIT (LENGTH_MEASURE( 1.000000000000000082E-05 ), #84, 'distance_accuracy_value', 'NONE');
#86 = FACE_OUTER_BOUND ( 'NONE', #48, .T. ) ;
#87 = COORDINATED_UNIVERSAL_TIME_OFFSET ( 8, 0, .AHEAD. ) ;
#88 = CARTESIAN_POINT ( 'NONE',  ( 3.056585567327140041, 4.130077740480468051, -4.709047443382797127 ) ) ;
#89 = B_SPLINE_CURVE_WITH_KNOTS ( 'NONE', 3,
 ( #94, #50, #157, #8, #61, #194, #178, #109, #29, #173, #6, #204, #177, #77, #97, #162, #12, #79, #209, #130, #112, #64, #129, #196, #210, #140, #75, #198, #52, #30, #155, #170, #88, #153, #203, #22, #43, #44, #92, #59, #192, #174, #195, #106, #60, #108, #80, #158, #7, #128, #172, #99, #96, #49, #176, #25, #28, #161, #156, #145, #10, #142, #66, #208, #63, #131, #51, #110, #45, #98, #11, #144, #65, #197, #180, #23, #93, #214, #100, #13, #187, #54, #53 ),
 .UNSPECIFIED., .T., .F.,
 ( 4, 2, 2, 2, 2, 2, 2, 2, 1, 2, 2, 2, 2, 2, 2, 2, 2, 2, 2, 2, 2, 2, 2, 2, 2, 2, 2, 2, 2, 2, 2, 2, 2, 2, 2, 2, 2, 2, 2, 2, 2, 4 ),
 ( 0.000000000000000000, 0.001221265555615186913, 0.001831898333422780694, 0.002442531111230374259, 0.003663796666845560955, 0.004885062222460746784, 0.006106327778075932612, 0.006716960555883525093, 0.007327593333691119308, 0.007938226111498712656, 0.008548858889306305137, 0.009770124444921488363, 0.01099139000053666985, 0.01221265555615185482, 0.01282328833395944556, 0.01343392111176703631, 0.01465518666738221953, 0.01587645222299740103, 0.01648708500080499351, 0.01709771777861258599, 0.01831898333422776748, 0.01954024888984295244, 0.02076151444545813393, 0.02137214722326572641, 0.02198278000107331889, 0.02320404555668850385, 0.02442531111230368535, 0.02564657666791887031, 0.02686784222353404833, 0.02747847500134164428, 0.02808910777914923676, 0.02931037333476442172, 0.03053163889037960321, 0.03114227166818719569, 0.03175290444599478817, 0.03297417000160997314, 0.03419543555722515810, 0.03541670111284033612, 0.03602733389064792513, 0.03663796666845551414, 0.03785923222407069910, 0.03908049777968587712 ),
 .UNSPECIFIED. ) ;
#90 = DATE_AND_TIME ( #121, #62 ) ;
#91 = DATE_TIME_ROLE ( 'classification_date' ) ;
#92 = CARTESIAN_POINT ( 'NONE',  ( 3.013052577955238398, 2.014700216582366643, -5.930556320548395099 ) ) ;
#93 = CARTESIAN_POINT ( 'NONE',  ( 3.025477399969256354, -2.770408711775401489, 5.606180787916350106 ) ) ;
#94 = CARTESIAN_POINT ( 'NONE',  ( 2.999999999999974243, 4.607859233063393845E-16, 6.250000000000000000 ) ) ;
#95 = ORIENTED_EDGE ( 'NONE', *, *, #18, .T. ) ;
#96 = CARTESIAN_POINT ( 'NONE',  ( 3.073484609138667167, -4.703533910333610457, -4.135855360531254021 ) ) ;
#97 = CARTESIAN_POINT ( 'NONE',  ( 3.097771407314624081, 5.415825852695925313, 3.126206536568263861 ) ) ;
#98 = CARTESIAN_POINT ( 'NONE',  ( 3.098052057697937123, -5.427455368057192864, 3.125983648253556790 ) ) ;
#99 = CARTESIAN_POINT ( 'NONE',  ( 3.056499415760490557, -4.126727642576456745, -4.711544308704806561 ) ) ;
#100 = CARTESIAN_POINT ( 'NONE',  ( 3.013161497074090533, -2.022281075561576991, 5.927780828655249579 ) ) ;
#101 = PERSON_AND_ORGANIZATION ( #127, #154 ) ;
#102 = APPROVAL_STATUS ( 'not_yet_approved' ) ;
#103 = COORDINATED_UNIVERSAL_TIME_OFFSET ( 8, 0, .AHEAD. ) ;
#104 = AXIS2_PLACEMENT_3D ( 'NONE', #207, #26, #111 ) ;
#105 = CC_DESIGN_PERSON_AND_ORGANIZATION_ASSIGNMENT ( #168, #21, ( #119 ) ) ;
#106 = CARTESIAN_POINT ( 'NONE',  ( 3.001651779934734865, -0.8110847042241804417, -6.210742465452475436 ) ) ;
#107 = EDGE_LOOP ( 'NONE', ( #159 ) ) ;
#108 = CARTESIAN_POINT ( 'NONE',  ( 3.008581107300151380, -1.616364065212874790, -6.040840822983807534 ) ) ;
#109 = CARTESIAN_POINT ( 'NONE',  ( 3.025131103206095684, 2.771632773030558994, 5.616793558441573353 ) ) ;
#110 = CARTESIAN_POINT ( 'NONE',  ( 3.114264019335340361, -5.854254617567134389, 2.198240183341267695 ) ) ;
#111 = DIRECTION ( 'NONE',  ( 0.000000000000000000, 0.000000000000000000, -1.000000000000000000 ) ) ;
#112 = CARTESIAN_POINT ( 'NONE',  ( 3.128583425606939805, 6.210068417051552103, 0.8165285385918698013 ) ) ;
#113 = COORDINATED_UNIVERSAL_TIME_OFFSET ( 8, 0, .AHEAD. ) ;
#114 = CARTESIAN_POINT ( 'NONE',  ( 10.00000000000000000, 0.000000000000000000, 0.000000000000000000 ) ) ;
#115 = PRODUCT_DEFINITION ( 'Î´Öª', '', #119, #123 ) ;
#116 = MECHANICAL_CONTEXT ( 'NONE', #31, 'mechanical' ) ;
#117 = COORDINATED_UNIVERSAL_TIME_OFFSET ( 8, 0, .AHEAD. ) ;
#118 = APPLICATION_PROTOCOL_DEFINITION ( 'international standard', 'config_control_design', 1994, #211 ) ;
#119 = PRODUCT_DEFINITION_FORMATION_WITH_SPECIFIED_SOURCE ( 'ÈÎºÎ', '', #47, .NOT_KNOWN. ) ;
#120 = DATE_AND_TIME ( #191, #183 ) ;
#121 = CALENDAR_DATE ( 2022, 5, 7 ) ;
#122 =( GEOMETRIC_REPRESENTATION_CONTEXT ( 3 ) GLOBAL_UNCERTAINTY_ASSIGNED_CONTEXT ( ( #85 ) ) GLOBAL_UNIT_ASSIGNED_CONTEXT ( ( #84, #184, #37 ) ) REPRESENTATION_CONTEXT ( 'NONE', 'WORKASPACE' ) );
#123 = DESIGN_CONTEXT ( 'detailed design', #211, 'design' ) ;
#124 = PERSON_AND_ORGANIZATION ( #127, #154 ) ;
#125 = APPROVAL ( #16, 'Î´Ö¸¶¨' ) ;
#126 = EDGE_LOOP ( 'NONE', ( #95 ) ) ;
#127 = PERSON ( 'Î´Ö¸¶¨', 'Î´Ö¸¶¨', 'Î´Ö¸¶¨', ('Î´Ö¸¶¨'), ('Î´Ö¸¶¨'), ('Î´Ö¸¶¨') ) ;
#128 = CARTESIAN_POINT ( 'NONE',  ( 3.032210177165637344, -3.127178953800466399, -5.427025907874800659 ) ) ;
#129 = CARTESIAN_POINT ( 'NONE',  ( 3.130273931816299537, 6.250216659844662459, -0.4043109558131020020 ) ) ;
#130 = CARTESIAN_POINT ( 'NONE',  ( 3.123658279502034674, 6.089647479161578225, 1.421613776396416284 ) ) ;
#131 = CARTESIAN_POINT ( 'NONE',  ( 3.121738100496220358, -6.042360817993370325, 1.610700952295671673 ) ) ;
#132 = APPROVAL ( #102, 'Î´Ö¸¶¨' ) ;
#133 = PERSON_AND_ORGANIZATION ( #127, #154 ) ;
#134 = CYLINDRICAL_SURFACE ( 'NONE', #34, 6.250000000000000000 ) ;
#135 = AXIS2_PLACEMENT_3D ( 'NONE', #68, #55, #201 ) ;
#136 = VERTEX_POINT ( 'NONE', #200 ) ;
#137 = DIRECTION ( 'NONE',  ( -0.000000000000000000, -0.000000000000000000, 1.000000000000000000 ) ) ;
#138 = APPROVAL_ROLE ( '' ) ;
#139 = DATE_AND_TIME ( #202, #38 ) ;
#140 = CARTESIAN_POINT ( 'NONE',  ( 3.117269588619252740, 5.932253569186850761, -2.009602596724349155 ) ) ;
#141 = ORIENTED_EDGE ( 'NONE', *, *, #185, .F. ) ;
#142 = CARTESIAN_POINT ( 'NONE',  ( 3.130247399447558365, -6.249580435747612128, -0.4185555423729283020 ) ) ;
#143 = ORIENTED_EDGE ( 'NONE', *, *, #185, .T. ) ;
#144 = CARTESIAN_POINT ( 'NONE',  ( 3.073724462917385658, -4.711162182931246889, 4.127210027222663946 ) ) ;
#145 = CARTESIAN_POINT ( 'NONE',  ( 3.123637634027276011, -6.089137634295182622, -1.423512725738816043 ) ) ;
#146 = CALENDAR_DATE ( 2022, 5, 7 ) ;
#147 = APPROVAL_ROLE ( '' ) ;
#148 = APPROVAL_PERSON_ORGANIZATION ( #124, #132, #138 ) ;
#149 = APPLICATION_PROTOCOL_DEFINITION ( 'international standard', 'config_control_design', 1994, #31 ) ;
#150 = PERSON_AND_ORGANIZATION ( #127, #154 ) ;
#151 = ADVANCED_FACE ( 'NONE', ( #1 ), #35, .F. ) ;
#152 = PERSON_AND_ORGANIZATION_ROLE ( 'classification_officer' ) ;
#153 = CARTESIAN_POINT ( 'NONE',  ( 3.048111809135761963, 3.813893033708335878, -4.968144860172805544 ) ) ;
#154 = ORGANIZATION ( 'Î´Ö¸¶¨', 'Î´Ö¸¶¨', '' ) ;
#155 = CARTESIAN_POINT ( 'NONE',  ( 3.082234341403159661, 4.971393283205493674, -3.809670569610355884 ) ) ;
#156 = CARTESIAN_POINT ( 'NONE',  ( 3.121620317589051119, -6.039443748375620480, -1.621671411133524643 ) ) ;
#157 = CARTESIAN_POINT ( 'NONE',  ( 3.001704044858114262, 0.8189967613343825947, 6.209475131211032561 ) ) ;
#158 = CARTESIAN_POINT ( 'NONE',  ( 3.016017304132986521, -2.200072876504270081, -5.853512162401841579 ) ) ;
#159 = ORIENTED_EDGE ( 'NONE', *, *, #18, .F. ) ;
#160 = CC_DESIGN_DATE_AND_TIME_ASSIGNMENT ( #90, #91, ( #42 ) ) ;
#161 = CARTESIAN_POINT ( 'NONE',  ( 3.116851867169555756, -5.919922533845635826, -2.014749649149454758 ) ) ;
#162 = CARTESIAN_POINT ( 'NONE',  ( 3.104861706500912089, 5.608638220924356155, 2.765413944204043073 ) ) ;
#163 = CC_DESIGN_APPROVAL ( #132, ( #42 ) ) ;
#164 = DIRECTION ( 'NONE',  ( 1.000000000000000000, 0.000000000000000000, 0.000000000000000000 ) ) ;
#165 = CIRCLE ( 'NONE', #193, 6.250000000000000000 ) ;
#166 = DIRECTION ( 'NONE',  ( 1.000000000000000000, 0.000000000000000000, 0.000000000000000000 ) ) ;
#167 = DATE_AND_TIME ( #146, #71 ) ;
#168 = PERSON_AND_ORGANIZATION ( #127, #154 ) ;
#169 = PRODUCT_RELATED_PRODUCT_CATEGORY ( 'detail', '', ( #47 ) ) ;
#170 = CARTESIAN_POINT ( 'NONE',  ( 3.073781223954013875, 4.713172751756042445, -4.125369386921208026 ) ) ;
#171 = LOCAL_TIME ( 17, 58, 19.00000000000000000, #113 ) ;
#172 = CARTESIAN_POINT ( 'NONE',  ( 3.048049157107996621, -3.811780550584571881, -4.970129520246132415 ) ) ;
#173 = CARTESIAN_POINT ( 'NONE',  ( 3.048008788821730430, 3.809957435904687717, 4.971270752250849689 ) ) ;
#174 = CARTESIAN_POINT ( 'NONE',  ( 3.000006065522688115, 0.4101184015117703696, -6.249854427445399097 ) ) ;
#175 = EDGE_LOOP ( 'NONE', ( #141 ) ) ;
#176 = CARTESIAN_POINT ( 'NONE',  ( 3.097859872629687761, -5.422185970619237239, -3.135202107154470674 ) ) ;
#177 = CARTESIAN_POINT ( 'NONE',  ( 3.082077610186127803, 4.966769416947769855, 3.816093957465199082 ) ) ;
#178 = CARTESIAN_POINT ( 'NONE',  ( 3.016073270250219540, 2.203981609456890922, 5.852086772412713245 ) ) ;
#179 = CC_DESIGN_PERSON_AND_ORGANIZATION_ASSIGNMENT ( #133, #36, ( #47 ) ) ;
#180 = CARTESIAN_POINT ( 'NONE',  ( 3.036406675026249058, -3.309040038711311471, 5.306114989009622640 ) ) ;
#181 = CALENDAR_DATE ( 2022, 5, 7 ) ;
#182 = DIRECTION ( 'NONE',  ( -1.000000000000000000, -0.000000000000000000, -0.000000000000000000 ) ) ;
#183 = LOCAL_TIME ( 17, 58, 19.00000000000000000, #189 ) ;
#184 =( NAMED_UNIT ( * ) PLANE_ANGLE_UNIT ( ) SI_UNIT ( $, .RADIAN. ) );
#185 = EDGE_CURVE ( 'NONE', #56, #56, #165, .T. ) ;
#186 = FACE_OUTER_BOUND ( 'NONE', #126, .T. ) ;
#187 = CARTESIAN_POINT ( 'NONE',  ( 3.001705031036113080, -0.8215774154278118191, 6.209470463021655284 ) ) ;
#188 = APPROVAL_PERSON_ORGANIZATION ( #70, #205, #73 ) ;
#189 = COORDINATED_UNIVERSAL_TIME_OFFSET ( 8, 0, .AHEAD. ) ;
#190 = APPROVAL_DATE_TIME ( #120, #132 ) ;
#191 = CALENDAR_DATE ( 2022, 5, 7 ) ;
#192 = CARTESIAN_POINT ( 'NONE',  ( 3.001730828265986695, 0.8243556870676891357, -6.208836068954336262 ) ) ;
#193 = AXIS2_PLACEMENT_3D ( 'NONE', #213, #166, #15 ) ;
#194 = CARTESIAN_POINT ( 'NONE',  ( 3.013323423376418120, 2.008831010521811233, 5.921924039002268714 ) ) ;
#195 = CARTESIAN_POINT ( 'NONE',  ( 2.999993967466151545, -0.4056694298295402956, -6.250144780820617640 ) ) ;
#196 = CARTESIAN_POINT ( 'NONE',  ( 3.128566469861250976, 6.209651916914121550, -0.8183672147407170527 ) ) ;
#197 = CARTESIAN_POINT ( 'NONE',  ( 3.048271464517775531, -3.820390671732301069, 4.963418593357731723 ) ) ;
#198 = CARTESIAN_POINT ( 'NONE',  ( 3.104879555632381383, 5.609120944670554998, -2.764488267261511201 ) ) ;
#199 = PERSON_AND_ORGANIZATION_ROLE ( 'creator' ) ;
#200 = CARTESIAN_POINT ( 'NONE',  ( 2.999999999999975131, 0.000000000000000000, 6.250000000000000000 ) ) ;
#201 = DIRECTION ( 'NONE',  ( 1.000000000000000000, 0.000000000000000000, 0.000000000000000000 ) ) ;
#202 = CALENDAR_DATE ( 2022, 5, 7 ) ;
#203 = CARTESIAN_POINT ( 'NONE',  ( 3.036348694321666208, 3.306346183997128207, -5.307731226015993897 ) ) ;
#204 = CARTESIAN_POINT ( 'NONE',  ( 3.073627219066818128, 4.708067736334986542, 4.130714035080854885 ) ) ;
#205 = APPROVAL ( #40, 'Î´Ö¸¶¨' ) ;
#206 = PLANE ( 'NONE',  #104 ) ;
#207 = CARTESIAN_POINT ( 'NONE',  ( 0.000000000000000000, 0.000000000000000000, 0.000000000000000000 ) ) ;
#208 = CARTESIAN_POINT ( 'NONE',  ( 3.128588306053148749, -6.210170026368636798, 0.8136652171250923216 ) ) ;
#209 = CARTESIAN_POINT ( 'NONE',  ( 3.121613990966242369, 6.039283811836755334, 1.622144631197123044 ) ) ;
#210 = CARTESIAN_POINT ( 'NONE',  ( 3.122045617509589199, 6.050219452892290128, -1.619983456471522532 ) ) ;
#211 = APPLICATION_CONTEXT ( 'configuration controlled 3d designs of mechanical parts and assemblies' ) ;
#212 = CC_DESIGN_DATE_AND_TIME_ASSIGNMENT ( #32, #81, ( #115 ) ) ;
#213 = CARTESIAN_POINT ( 'NONE',  ( 0.000000000000000000, 0.000000000000000000, 0.000000000000000000 ) ) ;
#214 = CARTESIAN_POINT ( 'NONE',  ( 3.022177704074547222, -2.586146860610697207, 5.693484960078514234 ) ) ;
ENDSEC;
END-ISO-10303-21;
