ISO-10303-21;
HEADER;
FILE_DESCRIPTION (( 'STEP AP214' ),
    '1' );
FILE_NAME ('290003.STEP',
    '2019-08-12T01:59:36',
    ( '' ),
    ( '' ),
    'SwSTEP 2.0',
    'SolidWorks 2016',
    '' );
FILE_SCHEMA (( 'AUTOMOTIVE_DESIGN' ));
ENDSEC;

DATA;
#1 = CARTESIAN_POINT ( 'NONE',  ( 54.39238298171605400, 80.82051942170029700, 12.50164789137813900 ) ) ;
#2 = CARTESIAN_POINT ( 'NONE',  ( 8.392382981716059100, 80.82051942170029700, 12.50164789137813900 ) ) ;
#3 = CARTESIAN_POINT ( 'NONE',  ( 54.39238298171605400, 68.31887153032211300, 0.0000000000000000000 ) ) ;
#4 = DIRECTION ( 'NONE',  ( 1.000000000000000000, 0.0000000000000000000, 0.0000000000000000000 ) ) ;
#5 = ADVANCED_FACE ( 'NONE', ( #109 ), #105, .T. ) ;
#6 = COLOUR_RGB ( '',1.000000000000000000, 1.000000000000000000, 1.000000000000000000 ) ;
#7 = ORIENTED_EDGE ( 'NONE', *, *, #69, .T. ) ;
#8 = MECHANICAL_DESIGN_GEOMETRIC_PRESENTATION_REPRESENTATION (  '', ( #147 ), #22 ) ;
#9 = SURFACE_STYLE_FILL_AREA ( #18 ) ;
#10 =( BOUNDED_SURFACE ( )  B_SPLINE_SURFACE ( 3, 1, ( 
 ( #66, #142 ),
 ( #85, #52 ),
 ( #31, #73 ),
 ( #116, #14 ) ),
 .UNSPECIFIED., .F., .F., .T. ) 
 B_SPLINE_SURFACE_WITH_KNOTS ( ( 4, 4 ),
 ( 2, 2 ),
 ( 0.0000000000000000000, 1.000000000000000000 ),
 ( 0.0000000000000000000, 1.000000000000000000 ),
 .UNSPECIFIED. ) 
 GEOMETRIC_REPRESENTATION_ITEM ( )  RATIONAL_B_SPLINE_SURFACE ( (
 ( 1.000000000000000000, 1.000000000000000000),
 ( 0.3333333333333333700, 0.3333333333333333700),
 ( 0.3333333333333333700, 0.3333333333333333700),
 ( 1.000000000000000000, 1.000000000000000000) ) ) 
 REPRESENTATION_ITEM ( '' )  SURFACE ( )  );
#11 = CARTESIAN_POINT ( 'NONE',  ( 8.392382981716059100, 3.258871530322109900, 0.0000000000000000000 ) ) ;
#12 = DIRECTION ( 'NONE',  ( 0.0000000000000000000, -0.7071067811865489100, -0.7071067811865462400 ) ) ;
#13 = CARTESIAN_POINT ( 'NONE',  ( 54.39238298171605400, 80.82051942170029700, 12.50164789137813900 ) ) ;
#14 = CARTESIAN_POINT ( 'NONE',  ( 54.39238298171605400, 68.31887153032211300, 3.469446951953614200E-015 ) ) ;
#15 = SURFACE_SIDE_STYLE ('',( #48 ) ) ;
#16 = SURFACE_STYLE_USAGE ( .BOTH. , #15 ) ;
#17 = VECTOR ( 'NONE', #12, 1000.000000000000000 ) ;
#18 = FILL_AREA_STYLE ('',( #84 ) ) ;
#19 = PRESENTATION_LAYER_ASSIGNMENT (  '', '', ( #47 ) ) ;
#20 = PRODUCT_CONTEXT ( 'NONE', #70, 'mechanical' ) ;
#21 =( BOUNDED_CURVE ( )  B_SPLINE_CURVE ( 3, ( #38, #67, #11, #27 ),
 .UNSPECIFIED., .F., .T. ) 
 B_SPLINE_CURVE_WITH_KNOTS ( ( 4, 4 ),
 ( 0.0000000000000000000, 3.141592653589793100 ),
 .UNSPECIFIED. ) 
 CURVE ( )  GEOMETRIC_REPRESENTATION_ITEM ( )  RATIONAL_B_SPLINE_CURVE ( ( 1.000000000000000000, 0.3333333333333333700, 0.3333333333333333700, 1.000000000000000000 ) ) 
 REPRESENTATION_ITEM ( '' )  );
#22 =( GEOMETRIC_REPRESENTATION_CONTEXT ( 3 ) GLOBAL_UNCERTAINTY_ASSIGNED_CONTEXT ( ( #65 ) ) GLOBAL_UNIT_ASSIGNED_CONTEXT ( ( #108, #41, #97 ) ) REPRESENTATION_CONTEXT ( 'NONE', 'WORKASPACE' ) );
#23 = VERTEX_POINT ( 'NONE', #39 ) ;
#24 = MECHANICAL_DESIGN_GEOMETRIC_PRESENTATION_REPRESENTATION (  '', ( #47 ), #119 ) ;
#25 = ADVANCED_FACE ( 'NONE', ( #89 ), #102, .F. ) ;
#26 = CLOSED_SHELL ( 'NONE', ( #76, #25, #5, #64 ) ) ;
#27 = CARTESIAN_POINT ( 'NONE',  ( 54.39238298171605400, 3.258871530322102300, 0.0000000000000000000 ) ) ;
#28 = DIRECTION ( 'NONE',  ( 1.000000000000000000, 0.0000000000000000000, -0.0000000000000000000 ) ) ;
#29 =( NAMED_UNIT ( * ) PLANE_ANGLE_UNIT ( ) SI_UNIT ( $, .RADIAN. ) );
#30 = CARTESIAN_POINT ( 'NONE',  ( 54.39238298171605400, 80.82051942170029700, 12.50164789137813900 ) ) ;
#31 = CARTESIAN_POINT ( 'NONE',  ( 100.3923829817160400, 80.82051942170029700, 12.50164789137813900 ) ) ;
#32 = DIRECTION ( 'NONE',  ( 0.0000000000000000000, 0.0000000000000000000, 1.000000000000000000 ) ) ;
#33 = ORIENTED_EDGE ( 'NONE', *, *, #139, .T. ) ;
#34 =( BOUNDED_CURVE ( )  B_SPLINE_CURVE ( 3, ( #112, #2, #110, #44 ),
 .UNSPECIFIED., .F., .F. ) 
 B_SPLINE_CURVE_WITH_KNOTS ( ( 4, 4 ),
 ( 0.0000000000000000000, 3.141592653589793100 ),
 .UNSPECIFIED. ) 
 CURVE ( )  GEOMETRIC_REPRESENTATION_ITEM ( )  RATIONAL_B_SPLINE_CURVE ( ( 1.000000000000000000, 0.3333333333333333700, 0.3333333333333333700, 1.000000000000000000 ) ) 
 REPRESENTATION_ITEM ( '' )  );
#35 = CARTESIAN_POINT ( 'NONE',  ( 54.39238298171605400, 35.78887153032210500, 0.0000000000000000000 ) ) ;
#36 = ORIENTED_EDGE ( 'NONE', *, *, #139, .F. ) ;
#37 = CARTESIAN_POINT ( 'NONE',  ( 54.39238298171605400, 3.258871530322102300, 0.0000000000000000000 ) ) ;
#38 = CARTESIAN_POINT ( 'NONE',  ( 54.39238298171605400, 68.31887153032211300, 0.0000000000000000000 ) ) ;
#39 = CARTESIAN_POINT ( 'NONE',  ( 54.39238298171605400, 68.31887153032211300, 0.0000000000000000000 ) ) ;
#40 =( NAMED_UNIT ( * ) SI_UNIT ( $, .STERADIAN. ) SOLID_ANGLE_UNIT ( ) );
#41 =( NAMED_UNIT ( * ) PLANE_ANGLE_UNIT ( ) SI_UNIT ( $, .RADIAN. ) );
#42 = UNCERTAINTY_MEASURE_WITH_UNIT (LENGTH_MEASURE( 1.000000000000000100E-005 ), #137, 'distance_accuracy_value', 'NONE');
#43 = ORIENTED_EDGE ( 'NONE', *, *, #61, .T. ) ;
#44 = CARTESIAN_POINT ( 'NONE',  ( 54.39238298171605400, 15.76051942170028600, 12.50164789137813900 ) ) ;
#45 = CARTESIAN_POINT ( 'NONE',  ( 54.39238298171605400, 15.76051942170028600, 12.50164789137813900 ) ) ;
#46 = PRESENTATION_LAYER_ASSIGNMENT (  '', '', ( #147 ) ) ;
#47 = STYLED_ITEM ( 'NONE', ( #144 ), #88 ) ;
#48 = SURFACE_STYLE_FILL_AREA ( #148 ) ;
#49 =( GEOMETRIC_REPRESENTATION_CONTEXT ( 3 ) GLOBAL_UNCERTAINTY_ASSIGNED_CONTEXT ( ( #42 ) ) GLOBAL_UNIT_ASSIGNED_CONTEXT ( ( #137, #29, #40 ) ) REPRESENTATION_CONTEXT ( 'NONE', 'WORKASPACE' ) );
#50 = ORIENTED_EDGE ( 'NONE', *, *, #122, .F. ) ;
#51 = CARTESIAN_POINT ( 'NONE',  ( 8.392382981716059100, 15.76051942170029500, 12.50164789137813900 ) ) ;
#52 = CARTESIAN_POINT ( 'NONE',  ( 100.3923829817160400, 3.258871530322093400, 2.602085213965210200E-015 ) ) ;
#53 =( LENGTH_UNIT ( ) NAMED_UNIT ( * ) SI_UNIT ( .MILLI., .METRE. ) );
#54 = VERTEX_POINT ( 'NONE', #81 ) ;
#55 = AXIS2_PLACEMENT_3D ( 'NONE', #83, #32, #4 ) ;
#56 = CARTESIAN_POINT ( 'NONE',  ( 54.39238298171605400, 3.258871530322100500, 3.469446951953614200E-015 ) ) ;
#57 = CARTESIAN_POINT ( 'NONE',  ( 100.3923829817160400, 80.82051942170029700, 12.50164789137813900 ) ) ;
#58 = UNCERTAINTY_MEASURE_WITH_UNIT (LENGTH_MEASURE( 1.000000000000000100E-005 ), #53, 'distance_accuracy_value', 'NONE');
#59 = APPLICATION_PROTOCOL_DEFINITION ( 'draft international standard', 'automotive_design', 1998, #70 ) ;
#60 = SURFACE_STYLE_USAGE ( .BOTH. , #145 ) ;
#61 = EDGE_CURVE ( 'NONE', #23, #114, #21, .T. ) ;
#62 = APPLICATION_PROTOCOL_DEFINITION ( 'draft international standard', 'automotive_design', 1998, #74 ) ;
#63 = PRODUCT_DEFINITION ( 'Î´Öª', '', #71, #90 ) ;
#64 = ADVANCED_FACE ( 'NONE', ( #99 ), #104, .F. ) ;
#65 = UNCERTAINTY_MEASURE_WITH_UNIT (LENGTH_MEASURE( 1.000000000000000100E-005 ), #108, 'distance_accuracy_value', 'NONE');
#66 = CARTESIAN_POINT ( 'NONE',  ( 54.39238298171605400, 15.76051942170028600, 12.50164789137813900 ) ) ;
#67 = CARTESIAN_POINT ( 'NONE',  ( 8.392382981716059100, 68.31887153032211300, 0.0000000000000000000 ) ) ;
#68 = DIRECTION ( 'NONE',  ( 0.0000000000000000000, 0.0000000000000000000, 1.000000000000000000 ) ) ;
#69 = EDGE_CURVE ( 'NONE', #54, #114, #141, .T. ) ;
#70 = APPLICATION_CONTEXT ( 'automotive_design' ) ;
#71 = PRODUCT_DEFINITION_FORMATION_WITH_SPECIFIED_SOURCE ( 'ÈÎºÎ', '', #140, .NOT_KNOWN. ) ;
#72 = CARTESIAN_POINT ( 'NONE',  ( 54.39238298171605400, 3.258871530322102300, 0.0000000000000000000 ) ) ;
#73 = CARTESIAN_POINT ( 'NONE',  ( 100.3923829817160400, 68.31887153032211300, 2.602085213965210200E-015 ) ) ;
#74 = APPLICATION_CONTEXT ( 'automotive_design' ) ;
#75 = ADVANCED_BREP_SHAPE_REPRESENTATION ( '290003', ( #88, #55 ), #49 ) ;
#76 = ADVANCED_FACE ( 'NONE', ( #117 ), #10, .F. ) ;
#77 = COLOUR_RGB ( '',1.000000000000000000, 1.000000000000000000, 1.000000000000000000 ) ;
#78 = EDGE_CURVE ( 'NONE', #123, #23, #87, .T. ) ;
#79 = ORIENTED_EDGE ( 'NONE', *, *, #78, .T. ) ;
#80 = CARTESIAN_POINT ( 'NONE',  ( 54.39238298171605400, 15.76051942170028600, 12.50164789137813900 ) ) ;
#81 = CARTESIAN_POINT ( 'NONE',  ( 54.39238298171605400, 15.76051942170028600, 12.50164789137813900 ) ) ;
#82 = CARTESIAN_POINT ( 'NONE',  ( 54.39238298171605400, 15.76051942170028600, 12.50164789137813900 ) ) ;
#83 = CARTESIAN_POINT ( 'NONE',  ( 0.0000000000000000000, 0.0000000000000000000, 0.0000000000000000000 ) ) ;
#84 = FILL_AREA_STYLE_COLOUR ( '', #77 ) ;
#85 = CARTESIAN_POINT ( 'NONE',  ( 100.3923829817160400, 15.76051942170027900, 12.50164789137813900 ) ) ;
#86 =( NAMED_UNIT ( * ) SI_UNIT ( $, .STERADIAN. ) SOLID_ANGLE_UNIT ( ) );
#87 = LINE ( 'NONE', #98, #132 ) ;
#88 = MANIFOLD_SOLID_BREP ( 'Í¹Ì¨-À­Éì2', #26 ) ;
#89 = FACE_OUTER_BOUND ( 'NONE', #120, .T. ) ;
#90 = PRODUCT_DEFINITION_CONTEXT ( 'detailed design', #74, 'design' ) ;
#91 =( BOUNDED_CURVE ( )  B_SPLINE_CURVE ( 3, ( #45, #138, #57, #1 ),
 .UNSPECIFIED., .F., .T. ) 
 B_SPLINE_CURVE_WITH_KNOTS ( ( 4, 4 ),
 ( 3.141592653589793100, 6.283185307179586200 ),
 .UNSPECIFIED. ) 
 CURVE ( )  GEOMETRIC_REPRESENTATION_ITEM ( )  RATIONAL_B_SPLINE_CURVE ( ( 1.000000000000000000, 0.3333333333333333700, 0.3333333333333333700, 1.000000000000000000 ) ) 
 REPRESENTATION_ITEM ( '' )  );
#92 = ORIENTED_EDGE ( 'NONE', *, *, #122, .T. ) ;
#93 = CARTESIAN_POINT ( 'NONE',  ( 54.39238298171605400, 68.31887153032211300, 3.469446951953614200E-015 ) ) ;
#94 = PRODUCT_RELATED_PRODUCT_CATEGORY ( 'part', '', ( #140 ) ) ;
#95 = EDGE_LOOP ( 'NONE', ( #131, #103 ) ) ;
#96 =( NAMED_UNIT ( * ) PLANE_ANGLE_UNIT ( ) SI_UNIT ( $, .RADIAN. ) );
#97 =( NAMED_UNIT ( * ) SI_UNIT ( $, .STERADIAN. ) SOLID_ANGLE_UNIT ( ) );
#98 = CARTESIAN_POINT ( 'NONE',  ( 54.39238298171605400, 80.82051942170029700, 12.50164789137813900 ) ) ;
#99 = FACE_OUTER_BOUND ( 'NONE', #95, .T. ) ;
#100 = PRESENTATION_STYLE_ASSIGNMENT (( #16 ) ) ;
#101 = ORIENTED_EDGE ( 'NONE', *, *, #69, .F. ) ;
#102 =( BOUNDED_SURFACE ( )  B_SPLINE_SURFACE ( 3, 1, ( 
 ( #13, #93 ),
 ( #125, #143 ),
 ( #51, #126 ),
 ( #80, #56 ) ),
 .UNSPECIFIED., .F., .F., .T. ) 
 B_SPLINE_SURFACE_WITH_KNOTS ( ( 4, 4 ),
 ( 2, 2 ),
 ( 0.0000000000000000000, 1.000000000000000000 ),
 ( 0.0000000000000000000, 1.000000000000000000 ),
 .UNSPECIFIED. ) 
 GEOMETRIC_REPRESENTATION_ITEM ( )  RATIONAL_B_SPLINE_SURFACE ( (
 ( 1.000000000000000000, 1.000000000000000000),
 ( 0.3333333333333333700, 0.3333333333333333700),
 ( 0.3333333333333333700, 0.3333333333333333700),
 ( 1.000000000000000000, 1.000000000000000000) ) ) 
 REPRESENTATION_ITEM ( '' )  SURFACE ( )  );
#103 = ORIENTED_EDGE ( 'NONE', *, *, #113, .F. ) ;
#104 = PLANE ( 'NONE',  #129 ) ;
#105 = PLANE ( 'NONE',  #111 ) ;
#106 = EDGE_LOOP ( 'NONE', ( #92, #33 ) ) ;
#107 = CARTESIAN_POINT ( 'NONE',  ( 54.39238298171605400, 48.29051942170028900, 12.50164789137813900 ) ) ;
#108 =( LENGTH_UNIT ( ) NAMED_UNIT ( * ) SI_UNIT ( .MILLI., .METRE. ) );
#109 = FACE_OUTER_BOUND ( 'NONE', #106, .T. ) ;
#110 = CARTESIAN_POINT ( 'NONE',  ( 8.392382981716059100, 15.76051942170029500, 12.50164789137813900 ) ) ;
#111 = AXIS2_PLACEMENT_3D ( 'NONE', #107, #68, #133 ) ;
#112 = CARTESIAN_POINT ( 'NONE',  ( 54.39238298171605400, 80.82051942170029700, 12.50164789137813900 ) ) ;
#113 = EDGE_CURVE ( 'NONE', #114, #23, #124, .T. ) ;
#114 = VERTEX_POINT ( 'NONE', #72 ) ;
#115 = PRODUCT_DEFINITION_SHAPE ( 'NONE', 'NONE',  #63 ) ;
#116 = CARTESIAN_POINT ( 'NONE',  ( 54.39238298171605400, 80.82051942170029700, 12.50164789137813900 ) ) ;
#117 = FACE_OUTER_BOUND ( 'NONE', #127, .T. ) ;
#118 = DIRECTION ( 'NONE',  ( 0.0000000000000000000, -0.7071067811865489100, -0.7071067811865462400 ) ) ;
#119 =( GEOMETRIC_REPRESENTATION_CONTEXT ( 3 ) GLOBAL_UNCERTAINTY_ASSIGNED_CONTEXT ( ( #58 ) ) GLOBAL_UNIT_ASSIGNED_CONTEXT ( ( #53, #96, #86 ) ) REPRESENTATION_CONTEXT ( 'NONE', 'WORKASPACE' ) );
#120 = EDGE_LOOP ( 'NONE', ( #101, #50, #79, #43 ) ) ;
#121 = SHAPE_DEFINITION_REPRESENTATION ( #115, #75 ) ;
#122 = EDGE_CURVE ( 'NONE', #123, #54, #34, .T. ) ;
#123 = VERTEX_POINT ( 'NONE', #30 ) ;
#124 =( BOUNDED_CURVE ( )  B_SPLINE_CURVE ( 3, ( #37, #128, #135, #3 ),
 .UNSPECIFIED., .F., .F. ) 
 B_SPLINE_CURVE_WITH_KNOTS ( ( 4, 4 ),
 ( 3.141592653589793100, 6.283185307179586200 ),
 .UNSPECIFIED. ) 
 CURVE ( )  GEOMETRIC_REPRESENTATION_ITEM ( )  RATIONAL_B_SPLINE_CURVE ( ( 1.000000000000000000, 0.3333333333333333700, 0.3333333333333333700, 1.000000000000000000 ) ) 
 REPRESENTATION_ITEM ( '' )  );
#125 = CARTESIAN_POINT ( 'NONE',  ( 8.392382981716059100, 80.82051942170029700, 12.50164789137813900 ) ) ;
#126 = CARTESIAN_POINT ( 'NONE',  ( 8.392382981716059100, 3.258871530322108500, 2.602085213965210200E-015 ) ) ;
#127 = EDGE_LOOP ( 'NONE', ( #36, #7, #146, #136 ) ) ;
#128 = CARTESIAN_POINT ( 'NONE',  ( 100.3923829817160400, 3.258871530322094800, 0.0000000000000000000 ) ) ;
#129 = AXIS2_PLACEMENT_3D ( 'NONE', #35, #134, #28 ) ;
#130 = FILL_AREA_STYLE_COLOUR ( '', #6 ) ;
#131 = ORIENTED_EDGE ( 'NONE', *, *, #61, .F. ) ;
#132 = VECTOR ( 'NONE', #118, 1000.000000000000000 ) ;
#133 = DIRECTION ( 'NONE',  ( 1.000000000000000000, 0.0000000000000000000, -0.0000000000000000000 ) ) ;
#134 = DIRECTION ( 'NONE',  ( 0.0000000000000000000, 0.0000000000000000000, 1.000000000000000000 ) ) ;
#135 = CARTESIAN_POINT ( 'NONE',  ( 100.3923829817160400, 68.31887153032211300, 0.0000000000000000000 ) ) ;
#136 = ORIENTED_EDGE ( 'NONE', *, *, #78, .F. ) ;
#137 =( LENGTH_UNIT ( ) NAMED_UNIT ( * ) SI_UNIT ( .MILLI., .METRE. ) );
#138 = CARTESIAN_POINT ( 'NONE',  ( 100.3923829817160400, 15.76051942170027900, 12.50164789137813900 ) ) ;
#139 = EDGE_CURVE ( 'NONE', #54, #123, #91, .T. ) ;
#140 = PRODUCT ( '290003', '290003', '', ( #20 ) ) ;
#141 = LINE ( 'NONE', #82, #17 ) ;
#142 = CARTESIAN_POINT ( 'NONE',  ( 54.39238298171605400, 3.258871530322100500, 3.469446951953614200E-015 ) ) ;
#143 = CARTESIAN_POINT ( 'NONE',  ( 8.392382981716059100, 68.31887153032211300, 2.602085213965210200E-015 ) ) ;
#144 = PRESENTATION_STYLE_ASSIGNMENT (( #60 ) ) ;
#145 = SURFACE_SIDE_STYLE ('',( #9 ) ) ;
#146 = ORIENTED_EDGE ( 'NONE', *, *, #113, .T. ) ;
#147 = STYLED_ITEM ( 'NONE', ( #100 ), #75 ) ;
#148 = FILL_AREA_STYLE ('',( #130 ) ) ;
ENDSEC;
END-ISO-10303-21;
