ISO-10303-21;
HEADER;
FILE_DESCRIPTION (( 'STEP AP214' ),
    '1' );
FILE_NAME ('302504.STEP',
    '2019-08-13T03:02:08',
    ( '' ),
    ( '' ),
    'SwSTEP 2.0',
    'SolidWorks 2016',
    '' );
FILE_SCHEMA (( 'AUTOMOTIVE_DESIGN' ));
ENDSEC;

DATA;
#1 = MANIFOLD_SOLID_BREP ( 'Í¹Ì¨-À­Éì1', #137 ) ;
#2 = CARTESIAN_POINT ( 'NONE',  ( 35.49917431035404300, 24.62529673381063900, 2.299999999999999800 ) ) ;
#3 = DIRECTION ( 'NONE',  ( -0.0000000000000000000, -0.0000000000000000000, -1.000000000000000000 ) ) ;
#4 =( LENGTH_UNIT ( ) NAMED_UNIT ( * ) SI_UNIT ( .MILLI., .METRE. ) );
#5 = EDGE_LOOP ( 'NONE', ( #22, #55 ) ) ;
#6 = PRODUCT_CONTEXT ( 'NONE', #18, 'mechanical' ) ;
#7 =( NAMED_UNIT ( * ) PLANE_ANGLE_UNIT ( ) SI_UNIT ( $, .RADIAN. ) );
#8 = PRODUCT_DEFINITION_CONTEXT ( 'detailed design', #28, 'design' ) ;
#9 = VECTOR ( 'NONE', #3, 1000.000000000000000 ) ;
#10 = CIRCLE ( 'NONE', #122, 4.999999999999997300 ) ;
#11 = PLANE ( 'NONE',  #140 ) ;
#12 = MECHANICAL_DESIGN_GEOMETRIC_PRESENTATION_REPRESENTATION (  '', ( #19 ), #134 ) ;
#13 = ORIENTED_EDGE ( 'NONE', *, *, #90, .T. ) ;
#14 = PRESENTATION_STYLE_ASSIGNMENT (( #60 ) ) ;
#15 = CARTESIAN_POINT ( 'NONE',  ( 35.49917431035404300, 24.62529673381063900, 0.0000000000000000000 ) ) ;
#16 = ADVANCED_FACE ( 'NONE', ( #125 ), #11, .F. ) ;
#17 = FILL_AREA_STYLE_COLOUR ( '', #108 ) ;
#18 = APPLICATION_CONTEXT ( 'automotive_design' ) ;
#19 = STYLED_ITEM ( 'NONE', ( #14 ), #1 ) ;
#20 = ORIENTED_EDGE ( 'NONE', *, *, #31, .F. ) ;
#21 = SURFACE_STYLE_FILL_AREA ( #123 ) ;
#22 = ORIENTED_EDGE ( 'NONE', *, *, #95, .F. ) ;
#23 = AXIS2_PLACEMENT_3D ( 'NONE', #84, #91, #49 ) ;
#24 = EDGE_LOOP ( 'NONE', ( #20, #99, #13, #118 ) ) ;
#25 =( GEOMETRIC_REPRESENTATION_CONTEXT ( 3 ) GLOBAL_UNCERTAINTY_ASSIGNED_CONTEXT ( ( #29 ) ) GLOBAL_UNIT_ASSIGNED_CONTEXT ( ( #87, #45, #127 ) ) REPRESENTATION_CONTEXT ( 'NONE', 'WORKASPACE' ) );
#26 = CARTESIAN_POINT ( 'NONE',  ( 40.49917431035404300, 24.62529673381063900, 2.299999999999999800 ) ) ;
#27 = CARTESIAN_POINT ( 'NONE',  ( 40.49917431035404300, 24.62529673381063900, 2.299999999999999800 ) ) ;
#28 = APPLICATION_CONTEXT ( 'automotive_design' ) ;
#29 = UNCERTAINTY_MEASURE_WITH_UNIT (LENGTH_MEASURE( 1.000000000000000100E-005 ), #87, 'distance_accuracy_value', 'NONE');
#30 =( LENGTH_UNIT ( ) NAMED_UNIT ( * ) SI_UNIT ( .MILLI., .METRE. ) );
#31 = EDGE_CURVE ( 'NONE', #131, #130, #81, .T. ) ;
#32 = SURFACE_SIDE_STYLE ('',( #67 ) ) ;
#33 = DIRECTION ( 'NONE',  ( 0.0000000000000000000, 0.0000000000000000000, 1.000000000000000000 ) ) ;
#34 = STYLED_ITEM ( 'NONE', ( #107 ), #64 ) ;
#35 = PRODUCT_DEFINITION_FORMATION_WITH_SPECIFIED_SOURCE ( 'ÈÎºÎ', '', #65, .NOT_KNOWN. ) ;
#36 = ADVANCED_FACE ( 'NONE', ( #69 ), #136, .T. ) ;
#37 = EDGE_CURVE ( 'NONE', #42, #131, #120, .T. ) ;
#38 = CARTESIAN_POINT ( 'NONE',  ( 40.49917431035404300, 24.62529673381063900, 2.299999999999999800 ) ) ;
#39 = DIRECTION ( 'NONE',  ( 1.000000000000000000, 0.0000000000000000000, -0.0000000000000000000 ) ) ;
#40 =( NAMED_UNIT ( * ) SI_UNIT ( $, .STERADIAN. ) SOLID_ANGLE_UNIT ( ) );
#41 = PRESENTATION_LAYER_ASSIGNMENT (  '', '', ( #34 ) ) ;
#42 = VERTEX_POINT ( 'NONE', #2 ) ;
#43 = CARTESIAN_POINT ( 'NONE',  ( 45.49917431035403600, 24.62529673381063900, 2.299999999999999800 ) ) ;
#44 = LINE ( 'NONE', #71, #86 ) ;
#45 =( NAMED_UNIT ( * ) PLANE_ANGLE_UNIT ( ) SI_UNIT ( $, .RADIAN. ) );
#46 = SHAPE_DEFINITION_REPRESENTATION ( #105, #64 ) ;
#47 = EDGE_CURVE ( 'NONE', #130, #89, #63, .T. ) ;
#48 = ORIENTED_EDGE ( 'NONE', *, *, #47, .T. ) ;
#49 = DIRECTION ( 'NONE',  ( 1.000000000000000000, 0.0000000000000000000, 0.0000000000000000000 ) ) ;
#50 = CARTESIAN_POINT ( 'NONE',  ( 40.49917431035404300, 24.62529673381063900, 0.0000000000000000000 ) ) ;
#51 = CIRCLE ( 'NONE', #80, 4.999999999999997300 ) ;
#52 = DIRECTION ( 'NONE',  ( -1.000000000000000000, 0.0000000000000000000, 0.0000000000000000000 ) ) ;
#53 = CARTESIAN_POINT ( 'NONE',  ( 45.49917431035403600, 24.62529673381063900, 0.0000000000000000000 ) ) ;
#54 = MECHANICAL_DESIGN_GEOMETRIC_PRESENTATION_REPRESENTATION (  '', ( #34 ), #59 ) ;
#55 = ORIENTED_EDGE ( 'NONE', *, *, #47, .F. ) ;
#56 = FACE_OUTER_BOUND ( 'NONE', #24, .T. ) ;
#57 = COLOUR_RGB ( '',1.000000000000000000, 1.000000000000000000, 1.000000000000000000 ) ;
#58 = DIRECTION ( 'NONE',  ( 0.0000000000000000000, 0.0000000000000000000, 1.000000000000000000 ) ) ;
#59 =( GEOMETRIC_REPRESENTATION_CONTEXT ( 3 ) GLOBAL_UNCERTAINTY_ASSIGNED_CONTEXT ( ( #119 ) ) GLOBAL_UNIT_ASSIGNED_CONTEXT ( ( #30, #7, #104 ) ) REPRESENTATION_CONTEXT ( 'NONE', 'WORKASPACE' ) );
#60 = SURFACE_STYLE_USAGE ( .BOTH. , #72 ) ;
#61 = CYLINDRICAL_SURFACE ( 'NONE', #88, 4.999999999999997300 ) ;
#62 = APPLICATION_PROTOCOL_DEFINITION ( 'draft international standard', 'automotive_design', 1998, #18 ) ;
#63 = CIRCLE ( 'NONE', #73, 4.999999999999997300 ) ;
#64 = ADVANCED_BREP_SHAPE_REPRESENTATION ( '302504', ( #1, #68 ), #25 ) ;
#65 = PRODUCT ( '302504', '302504', '', ( #6 ) ) ;
#66 = EDGE_CURVE ( 'NONE', #131, #42, #51, .T. ) ;
#67 = SURFACE_STYLE_FILL_AREA ( #116 ) ;
#68 = AXIS2_PLACEMENT_3D ( 'NONE', #76, #115, #128 ) ;
#69 = FACE_OUTER_BOUND ( 'NONE', #132, .T. ) ;
#70 = UNCERTAINTY_MEASURE_WITH_UNIT (LENGTH_MEASURE( 1.000000000000000100E-005 ), #4, 'distance_accuracy_value', 'NONE');
#71 = CARTESIAN_POINT ( 'NONE',  ( 35.49917431035404300, 24.62529673381063900, 2.299999999999999800 ) ) ;
#72 = SURFACE_SIDE_STYLE ('',( #21 ) ) ;
#73 = AXIS2_PLACEMENT_3D ( 'NONE', #93, #114, #92 ) ;
#74 = ORIENTED_EDGE ( 'NONE', *, *, #31, .T. ) ;
#75 = DIRECTION ( 'NONE',  ( -0.0000000000000000000, -0.0000000000000000000, -1.000000000000000000 ) ) ;
#76 = CARTESIAN_POINT ( 'NONE',  ( 0.0000000000000000000, 0.0000000000000000000, 0.0000000000000000000 ) ) ;
#77 = DIRECTION ( 'NONE',  ( 1.000000000000000000, 0.0000000000000000000, 0.0000000000000000000 ) ) ;
#78 = DIRECTION ( 'NONE',  ( -0.0000000000000000000, -0.0000000000000000000, -1.000000000000000000 ) ) ;
#79 = ORIENTED_EDGE ( 'NONE', *, *, #66, .F. ) ;
#80 = AXIS2_PLACEMENT_3D ( 'NONE', #38, #109, #111 ) ;
#81 = LINE ( 'NONE', #110, #9 ) ;
#82 = CYLINDRICAL_SURFACE ( 'NONE', #98, 4.999999999999997300 ) ;
#83 =( NAMED_UNIT ( * ) PLANE_ANGLE_UNIT ( ) SI_UNIT ( $, .RADIAN. ) );
#84 = CARTESIAN_POINT ( 'NONE',  ( 40.49917431035404300, 24.62529673381063900, 2.299999999999999800 ) ) ;
#85 = APPLICATION_PROTOCOL_DEFINITION ( 'draft international standard', 'automotive_design', 1998, #28 ) ;
#86 = VECTOR ( 'NONE', #75, 1000.000000000000000 ) ;
#87 =( LENGTH_UNIT ( ) NAMED_UNIT ( * ) SI_UNIT ( .MILLI., .METRE. ) );
#88 = AXIS2_PLACEMENT_3D ( 'NONE', #117, #78, #139 ) ;
#89 = VERTEX_POINT ( 'NONE', #15 ) ;
#90 = EDGE_CURVE ( 'NONE', #42, #89, #44, .T. ) ;
#91 = DIRECTION ( 'NONE',  ( 0.0000000000000000000, 0.0000000000000000000, 1.000000000000000000 ) ) ;
#92 = DIRECTION ( 'NONE',  ( 1.000000000000000000, 0.0000000000000000000, 0.0000000000000000000 ) ) ;
#93 = CARTESIAN_POINT ( 'NONE',  ( 40.49917431035404300, 24.62529673381063900, 0.0000000000000000000 ) ) ;
#94 = FACE_OUTER_BOUND ( 'NONE', #126, .T. ) ;
#95 = EDGE_CURVE ( 'NONE', #89, #130, #10, .T. ) ;
#96 = CARTESIAN_POINT ( 'NONE',  ( 40.49917431035404300, 24.62529673381063900, 0.0000000000000000000 ) ) ;
#97 = PRODUCT_DEFINITION ( 'Î´Öª', '', #35, #8 ) ;
#98 = AXIS2_PLACEMENT_3D ( 'NONE', #27, #135, #52 ) ;
#99 = ORIENTED_EDGE ( 'NONE', *, *, #37, .F. ) ;
#100 = PRESENTATION_LAYER_ASSIGNMENT (  '', '', ( #19 ) ) ;
#101 = DIRECTION ( 'NONE',  ( 0.0000000000000000000, 0.0000000000000000000, 1.000000000000000000 ) ) ;
#102 = ORIENTED_EDGE ( 'NONE', *, *, #66, .T. ) ;
#103 = ADVANCED_FACE ( 'NONE', ( #94 ), #82, .T. ) ;
#104 =( NAMED_UNIT ( * ) SI_UNIT ( $, .STERADIAN. ) SOLID_ANGLE_UNIT ( ) );
#105 = PRODUCT_DEFINITION_SHAPE ( 'NONE', 'NONE',  #97 ) ;
#106 = ORIENTED_EDGE ( 'NONE', *, *, #90, .F. ) ;
#107 = PRESENTATION_STYLE_ASSIGNMENT (( #129 ) ) ;
#108 = COLOUR_RGB ( '',1.000000000000000000, 1.000000000000000000, 1.000000000000000000 ) ;
#109 = DIRECTION ( 'NONE',  ( 0.0000000000000000000, 0.0000000000000000000, 1.000000000000000000 ) ) ;
#110 = CARTESIAN_POINT ( 'NONE',  ( 45.49917431035403600, 24.62529673381063900, 2.299999999999999800 ) ) ;
#111 = DIRECTION ( 'NONE',  ( 1.000000000000000000, 0.0000000000000000000, 0.0000000000000000000 ) ) ;
#112 = AXIS2_PLACEMENT_3D ( 'NONE', #26, #58, #39 ) ;
#113 = DIRECTION ( 'NONE',  ( 1.000000000000000000, 0.0000000000000000000, -0.0000000000000000000 ) ) ;
#114 = DIRECTION ( 'NONE',  ( 0.0000000000000000000, 0.0000000000000000000, 1.000000000000000000 ) ) ;
#115 = DIRECTION ( 'NONE',  ( 0.0000000000000000000, 0.0000000000000000000, 1.000000000000000000 ) ) ;
#116 = FILL_AREA_STYLE ('',( #17 ) ) ;
#117 = CARTESIAN_POINT ( 'NONE',  ( 40.49917431035404300, 24.62529673381063900, 2.299999999999999800 ) ) ;
#118 = ORIENTED_EDGE ( 'NONE', *, *, #95, .T. ) ;
#119 = UNCERTAINTY_MEASURE_WITH_UNIT (LENGTH_MEASURE( 1.000000000000000100E-005 ), #30, 'distance_accuracy_value', 'NONE');
#120 = CIRCLE ( 'NONE', #23, 4.999999999999997300 ) ;
#121 = PRODUCT_RELATED_PRODUCT_CATEGORY ( 'part', '', ( #65 ) ) ;
#122 = AXIS2_PLACEMENT_3D ( 'NONE', #96, #33, #77 ) ;
#123 = FILL_AREA_STYLE ('',( #124 ) ) ;
#124 = FILL_AREA_STYLE_COLOUR ( '', #57 ) ;
#125 = FACE_OUTER_BOUND ( 'NONE', #5, .T. ) ;
#126 = EDGE_LOOP ( 'NONE', ( #79, #74, #48, #106 ) ) ;
#127 =( NAMED_UNIT ( * ) SI_UNIT ( $, .STERADIAN. ) SOLID_ANGLE_UNIT ( ) );
#128 = DIRECTION ( 'NONE',  ( 1.000000000000000000, 0.0000000000000000000, 0.0000000000000000000 ) ) ;
#129 = SURFACE_STYLE_USAGE ( .BOTH. , #32 ) ;
#130 = VERTEX_POINT ( 'NONE', #53 ) ;
#131 = VERTEX_POINT ( 'NONE', #43 ) ;
#132 = EDGE_LOOP ( 'NONE', ( #138, #102 ) ) ;
#133 = ADVANCED_FACE ( 'NONE', ( #56 ), #61, .T. ) ;
#134 =( GEOMETRIC_REPRESENTATION_CONTEXT ( 3 ) GLOBAL_UNCERTAINTY_ASSIGNED_CONTEXT ( ( #70 ) ) GLOBAL_UNIT_ASSIGNED_CONTEXT ( ( #4, #83, #40 ) ) REPRESENTATION_CONTEXT ( 'NONE', 'WORKASPACE' ) );
#135 = DIRECTION ( 'NONE',  ( -0.0000000000000000000, -0.0000000000000000000, -1.000000000000000000 ) ) ;
#136 = PLANE ( 'NONE',  #112 ) ;
#137 = CLOSED_SHELL ( 'NONE', ( #103, #133, #36, #16 ) ) ;
#138 = ORIENTED_EDGE ( 'NONE', *, *, #37, .T. ) ;
#139 = DIRECTION ( 'NONE',  ( -1.000000000000000000, 0.0000000000000000000, 0.0000000000000000000 ) ) ;
#140 = AXIS2_PLACEMENT_3D ( 'NONE', #50, #101, #113 ) ;
ENDSEC;
END-ISO-10303-21;
