ISO-10303-21;
HEADER;
FILE_DESCRIPTION (( 'STEP AP214' ),
    '1' );
FILE_NAME ('302515.STEP',
    '2019-08-13T05:54:47',
    ( '' ),
    ( '' ),
    'SwSTEP 2.0',
    'SolidWorks 2016',
    '' );
FILE_SCHEMA (( 'AUTOMOTIVE_DESIGN' ));
ENDSEC;

DATA;
#1 = SURFACE_STYLE_FILL_AREA ( #141 ) ;
#2 = ORIENTED_EDGE ( 'NONE', *, *, #146, .T. ) ;
#3 = ORIENTED_EDGE ( 'NONE', *, *, #63, .T. ) ;
#4 = CARTESIAN_POINT ( 'NONE',  ( 43.80749197114183600, 38.28162091726329700, 2.299999999999999800 ) ) ;
#5 = DIRECTION ( 'NONE',  ( 1.000000000000000000, 0.0000000000000000000, 0.0000000000000000000 ) ) ;
#6 = CARTESIAN_POINT ( 'NONE',  ( 43.80749197114183600, 38.28162091726329700, 2.299999999999999800 ) ) ;
#7 = DIRECTION ( 'NONE',  ( 1.000000000000000000, 0.0000000000000000000, 0.0000000000000000000 ) ) ;
#8 = DIRECTION ( 'NONE',  ( 1.000000000000000000, 0.0000000000000000000, 0.0000000000000000000 ) ) ;
#9 = CARTESIAN_POINT ( 'NONE',  ( 43.80749197114183600, 38.28162091726329700, 0.0000000000000000000 ) ) ;
#10 = ORIENTED_EDGE ( 'NONE', *, *, #34, .T. ) ;
#11 = DIRECTION ( 'NONE',  ( -1.000000000000000000, -9.251858538542971800E-016, 0.0000000000000000000 ) ) ;
#12 =( LENGTH_UNIT ( ) NAMED_UNIT ( * ) SI_UNIT ( .MILLI., .METRE. ) );
#13 = APPLICATION_PROTOCOL_DEFINITION ( 'draft international standard', 'automotive_design', 1998, #43 ) ;
#14 = ADVANCED_BREP_SHAPE_REPRESENTATION ( '302515', ( #119, #66 ), #142 ) ;
#15 = VECTOR ( 'NONE', #73, 1000.000000000000000 ) ;
#16 = EDGE_CURVE ( 'NONE', #172, #91, #77, .T. ) ;
#17 = VECTOR ( 'NONE', #192, 1000.000000000000000 ) ;
#18 = LINE ( 'NONE', #193, #62 ) ;
#19 = DIRECTION ( 'NONE',  ( -0.0000000000000000000, -0.0000000000000000000, -1.000000000000000000 ) ) ;
#20 = VERTEX_POINT ( 'NONE', #81 ) ;
#21 = VECTOR ( 'NONE', #152, 1000.000000000000000 ) ;
#22 = CARTESIAN_POINT ( 'NONE',  ( 43.80749197114184300, 23.28162091726329700, 2.299999999999999800 ) ) ;
#23 =( NAMED_UNIT ( * ) PLANE_ANGLE_UNIT ( ) SI_UNIT ( $, .RADIAN. ) );
#24 = PRODUCT_DEFINITION_SHAPE ( 'NONE', 'NONE',  #109 ) ;
#25 = VERTEX_POINT ( 'NONE', #6 ) ;
#26 = CARTESIAN_POINT ( 'NONE',  ( 43.80749197114183600, 38.28162091726329700, 2.299999999999999800 ) ) ;
#27 = EDGE_CURVE ( 'NONE', #20, #172, #123, .T. ) ;
#28 = VECTOR ( 'NONE', #99, 1000.000000000000000 ) ;
#29 = UNCERTAINTY_MEASURE_WITH_UNIT (LENGTH_MEASURE( 1.000000000000000100E-005 ), #12, 'distance_accuracy_value', 'NONE');
#30 = EDGE_CURVE ( 'NONE', #129, #116, #156, .T. ) ;
#31 = VECTOR ( 'NONE', #19, 1000.000000000000000 ) ;
#32 =( GEOMETRIC_REPRESENTATION_CONTEXT ( 3 ) GLOBAL_UNCERTAINTY_ASSIGNED_CONTEXT ( ( #177 ) ) GLOBAL_UNIT_ASSIGNED_CONTEXT ( ( #201, #44, #75 ) ) REPRESENTATION_CONTEXT ( 'NONE', 'WORKASPACE' ) );
#33 = ORIENTED_EDGE ( 'NONE', *, *, #27, .F. ) ;
#34 = EDGE_CURVE ( 'NONE', #116, #172, #59, .T. ) ;
#35 = CARTESIAN_POINT ( 'NONE',  ( 43.80749197114184300, 23.28162091726329700, 0.0000000000000000000 ) ) ;
#36 = FACE_OUTER_BOUND ( 'NONE', #61, .T. ) ;
#37 = DIRECTION ( 'NONE',  ( 9.251858538542971800E-016, -1.000000000000000000, 0.0000000000000000000 ) ) ;
#38 =( NAMED_UNIT ( * ) SI_UNIT ( $, .STERADIAN. ) SOLID_ANGLE_UNIT ( ) );
#39 = EDGE_CURVE ( 'NONE', #129, #20, #18, .T. ) ;
#40 =( NAMED_UNIT ( * ) SI_UNIT ( $, .STERADIAN. ) SOLID_ANGLE_UNIT ( ) );
#41 = ORIENTED_EDGE ( 'NONE', *, *, #74, .T. ) ;
#42 = FACE_OUTER_BOUND ( 'NONE', #202, .T. ) ;
#43 = APPLICATION_CONTEXT ( 'automotive_design' ) ;
#44 =( NAMED_UNIT ( * ) PLANE_ANGLE_UNIT ( ) SI_UNIT ( $, .RADIAN. ) );
#45 = ORIENTED_EDGE ( 'NONE', *, *, #146, .F. ) ;
#46 = EDGE_LOOP ( 'NONE', ( #80, #76, #115, #189 ) ) ;
#47 = LINE ( 'NONE', #85, #28 ) ;
#48 = ORIENTED_EDGE ( 'NONE', *, *, #39, .F. ) ;
#49 = ORIENTED_EDGE ( 'NONE', *, *, #170, .T. ) ;
#50 = CARTESIAN_POINT ( 'NONE',  ( 43.80749197114183600, 38.28162091726329700, 0.0000000000000000000 ) ) ;
#51 = ADVANCED_FACE ( 'NONE', ( #54 ), #174, .F. ) ;
#52 = CARTESIAN_POINT ( 'NONE',  ( 43.80749197114183600, 38.28162091726329700, 2.299999999999999800 ) ) ;
#53 = CARTESIAN_POINT ( 'NONE',  ( 0.0000000000000000000, 0.0000000000000000000, 0.0000000000000000000 ) ) ;
#54 = FACE_OUTER_BOUND ( 'NONE', #94, .T. ) ;
#55 = ADVANCED_FACE ( 'NONE', ( #89 ), #69, .F. ) ;
#56 = DIRECTION ( 'NONE',  ( -0.0000000000000000000, 0.0000000000000000000, 1.000000000000000000 ) ) ;
#57 = PLANE ( 'NONE',  #167 ) ;
#58 = EDGE_LOOP ( 'NONE', ( #49, #45, #102, #3 ) ) ;
#59 = LINE ( 'NONE', #35, #191 ) ;
#60 = VECTOR ( 'NONE', #154, 1000.000000000000000 ) ;
#61 = EDGE_LOOP ( 'NONE', ( #124, #140, #68, #171 ) ) ;
#62 = VECTOR ( 'NONE', #5, 1000.000000000000000 ) ;
#63 = EDGE_CURVE ( 'NONE', #185, #91, #78, .T. ) ;
#64 = CARTESIAN_POINT ( 'NONE',  ( 43.80749197114184300, 23.28162091726329700, 2.299999999999999800 ) ) ;
#65 = FACE_OUTER_BOUND ( 'NONE', #46, .T. ) ;
#66 = AXIS2_PLACEMENT_3D ( 'NONE', #53, #105, #143 ) ;
#67 = DIRECTION ( 'NONE',  ( -4.625929269271485900E-016, 1.000000000000000000, 0.0000000000000000000 ) ) ;
#68 = ORIENTED_EDGE ( 'NONE', *, *, #16, .F. ) ;
#69 = PLANE ( 'NONE',  #132 ) ;
#70 = PRODUCT_DEFINITION_FORMATION_WITH_SPECIFIED_SOURCE ( 'ÈÎºÎ', '', #120, .NOT_KNOWN. ) ;
#71 = LINE ( 'NONE', #52, #15 ) ;
#72 = DIRECTION ( 'NONE',  ( 4.625929269271485900E-016, -1.000000000000000000, 0.0000000000000000000 ) ) ;
#73 = DIRECTION ( 'NONE',  ( -0.0000000000000000000, -0.0000000000000000000, -1.000000000000000000 ) ) ;
#74 = EDGE_CURVE ( 'NONE', #197, #116, #108, .T. ) ;
#75 =( NAMED_UNIT ( * ) SI_UNIT ( $, .STERADIAN. ) SOLID_ANGLE_UNIT ( ) );
#76 = ORIENTED_EDGE ( 'NONE', *, *, #39, .T. ) ;
#77 = LINE ( 'NONE', #96, #17 ) ;
#78 = LINE ( 'NONE', #186, #60 ) ;
#79 = CLOSED_SHELL ( 'NONE', ( #51, #113, #161, #55, #148, #110 ) ) ;
#80 = ORIENTED_EDGE ( 'NONE', *, *, #180, .T. ) ;
#81 = CARTESIAN_POINT ( 'NONE',  ( 64.80749197114184300, 23.28162091726329700, 2.299999999999999800 ) ) ;
#82 = CARTESIAN_POINT ( 'NONE',  ( 0.0000000000000000000, 0.0000000000000000000, 2.299999999999999800 ) ) ;
#83 = CARTESIAN_POINT ( 'NONE',  ( 64.80749197114182900, 38.28162091726329700, 0.0000000000000000000 ) ) ;
#84 = ORIENTED_EDGE ( 'NONE', *, *, #27, .T. ) ;
#85 = CARTESIAN_POINT ( 'NONE',  ( 43.80749197114183600, 38.28162091726329700, 2.299999999999999800 ) ) ;
#86 = DIRECTION ( 'NONE',  ( -9.251858538542971800E-016, 1.000000000000000000, -0.0000000000000000000 ) ) ;
#87 = SURFACE_STYLE_FILL_AREA ( #97 ) ;
#88 = SURFACE_STYLE_USAGE ( .BOTH. , #122 ) ;
#89 = FACE_OUTER_BOUND ( 'NONE', #58, .T. ) ;
#90 = ORIENTED_EDGE ( 'NONE', *, *, #30, .T. ) ;
#91 = VERTEX_POINT ( 'NONE', #83 ) ;
#92 = STYLED_ITEM ( 'NONE', ( #190 ), #119 ) ;
#93 = DIRECTION ( 'NONE',  ( -0.0000000000000000000, -0.0000000000000000000, -1.000000000000000000 ) ) ;
#94 = EDGE_LOOP ( 'NONE', ( #41, #125, #128, #2 ) ) ;
#95 = COLOUR_RGB ( '',1.000000000000000000, 1.000000000000000000, 1.000000000000000000 ) ;
#96 = CARTESIAN_POINT ( 'NONE',  ( 64.80749197114182900, 38.28162091726329700, 0.0000000000000000000 ) ) ;
#97 = FILL_AREA_STYLE ('',( #163 ) ) ;
#98 = PRESENTATION_LAYER_ASSIGNMENT (  '', '', ( #135 ) ) ;
#99 = DIRECTION ( 'NONE',  ( -1.000000000000000000, -0.0000000000000000000, -0.0000000000000000000 ) ) ;
#100 = VECTOR ( 'NONE', #130, 1000.000000000000000 ) ;
#101 =( NAMED_UNIT ( * ) PLANE_ANGLE_UNIT ( ) SI_UNIT ( $, .RADIAN. ) );
#102 = ORIENTED_EDGE ( 'NONE', *, *, #107, .F. ) ;
#103 = SHAPE_DEFINITION_REPRESENTATION ( #24, #14 ) ;
#104 = PRODUCT_CONTEXT ( 'NONE', #43, 'mechanical' ) ;
#105 = DIRECTION ( 'NONE',  ( 0.0000000000000000000, 0.0000000000000000000, 1.000000000000000000 ) ) ;
#106 = ORIENTED_EDGE ( 'NONE', *, *, #16, .T. ) ;
#107 = EDGE_CURVE ( 'NONE', #185, #25, #47, .T. ) ;
#108 = LINE ( 'NONE', #50, #100 ) ;
#109 = PRODUCT_DEFINITION ( 'Î´Öª', '', #70, #166 ) ;
#110 = ADVANCED_FACE ( 'NONE', ( #36 ), #57, .F. ) ;
#111 = PRESENTATION_STYLE_ASSIGNMENT (( #88 ) ) ;
#112 = DIRECTION ( 'NONE',  ( -0.0000000000000000000, 0.0000000000000000000, 1.000000000000000000 ) ) ;
#113 = ADVANCED_FACE ( 'NONE', ( #176 ), #137, .F. ) ;
#114 = CARTESIAN_POINT ( 'NONE',  ( 43.80749197114183600, 38.28162091726329700, 0.0000000000000000000 ) ) ;
#115 = ORIENTED_EDGE ( 'NONE', *, *, #157, .T. ) ;
#116 = VERTEX_POINT ( 'NONE', #168 ) ;
#117 = CARTESIAN_POINT ( 'NONE',  ( 64.80749197114182900, 38.28162091726329700, 2.299999999999999800 ) ) ;
#118 = APPLICATION_PROTOCOL_DEFINITION ( 'draft international standard', 'automotive_design', 1998, #200 ) ;
#119 = MANIFOLD_SOLID_BREP ( 'Í¹Ì¨-À­Éì1', #79 ) ;
#120 = PRODUCT ( '302515', '302515', '', ( #104 ) ) ;
#121 = AXIS2_PLACEMENT_3D ( 'NONE', #133, #160, #67 ) ;
#122 = SURFACE_SIDE_STYLE ('',( #1 ) ) ;
#123 = LINE ( 'NONE', #144, #31 ) ;
#124 = ORIENTED_EDGE ( 'NONE', *, *, #74, .F. ) ;
#125 = ORIENTED_EDGE ( 'NONE', *, *, #30, .F. ) ;
#126 = UNCERTAINTY_MEASURE_WITH_UNIT (LENGTH_MEASURE( 1.000000000000000100E-005 ), #182, 'distance_accuracy_value', 'NONE');
#127 = AXIS2_PLACEMENT_3D ( 'NONE', #82, #112, #164 ) ;
#128 = ORIENTED_EDGE ( 'NONE', *, *, #180, .F. ) ;
#129 = VERTEX_POINT ( 'NONE', #22 ) ;
#130 = DIRECTION ( 'NONE',  ( 4.625929269271485900E-016, -1.000000000000000000, 0.0000000000000000000 ) ) ;
#131 = VECTOR ( 'NONE', #93, 1000.000000000000000 ) ;
#132 = AXIS2_PLACEMENT_3D ( 'NONE', #4, #178, #149 ) ;
#133 = CARTESIAN_POINT ( 'NONE',  ( 43.80749197114183600, 38.28162091726329700, 2.299999999999999800 ) ) ;
#134 = PLANE ( 'NONE',  #151 ) ;
#135 = STYLED_ITEM ( 'NONE', ( #111 ), #14 ) ;
#136 = DIRECTION ( 'NONE',  ( 0.0000000000000000000, 1.000000000000000000, 0.0000000000000000000 ) ) ;
#137 = PLANE ( 'NONE',  #145 ) ;
#138 = CARTESIAN_POINT ( 'NONE',  ( 64.80749197114184300, 23.28162091726329700, 0.0000000000000000000 ) ) ;
#139 = CARTESIAN_POINT ( 'NONE',  ( 64.80749197114182900, 38.28162091726329700, 2.299999999999999800 ) ) ;
#140 = ORIENTED_EDGE ( 'NONE', *, *, #170, .F. ) ;
#141 = FILL_AREA_STYLE ('',( #181 ) ) ;
#142 =( GEOMETRIC_REPRESENTATION_CONTEXT ( 3 ) GLOBAL_UNCERTAINTY_ASSIGNED_CONTEXT ( ( #126 ) ) GLOBAL_UNIT_ASSIGNED_CONTEXT ( ( #182, #101, #38 ) ) REPRESENTATION_CONTEXT ( 'NONE', 'WORKASPACE' ) );
#143 = DIRECTION ( 'NONE',  ( 1.000000000000000000, 0.0000000000000000000, 0.0000000000000000000 ) ) ;
#144 = CARTESIAN_POINT ( 'NONE',  ( 64.80749197114184300, 23.28162091726329700, 2.299999999999999800 ) ) ;
#145 = AXIS2_PLACEMENT_3D ( 'NONE', #198, #136, #195 ) ;
#146 = EDGE_CURVE ( 'NONE', #25, #197, #71, .T. ) ;
#147 = LINE ( 'NONE', #26, #188 ) ;
#148 = ADVANCED_FACE ( 'NONE', ( #65 ), #179, .T. ) ;
#149 = DIRECTION ( 'NONE',  ( 0.0000000000000000000, -0.0000000000000000000, -1.000000000000000000 ) ) ;
#150 = LINE ( 'NONE', #139, #173 ) ;
#151 = AXIS2_PLACEMENT_3D ( 'NONE', #117, #11, #37 ) ;
#152 = DIRECTION ( 'NONE',  ( -1.000000000000000000, -0.0000000000000000000, -0.0000000000000000000 ) ) ;
#153 = CARTESIAN_POINT ( 'NONE',  ( 0.0000000000000000000, 0.0000000000000000000, 0.0000000000000000000 ) ) ;
#154 = DIRECTION ( 'NONE',  ( -0.0000000000000000000, -0.0000000000000000000, -1.000000000000000000 ) ) ;
#155 = PRESENTATION_LAYER_ASSIGNMENT (  '', '', ( #92 ) ) ;
#156 = LINE ( 'NONE', #64, #131 ) ;
#157 = EDGE_CURVE ( 'NONE', #20, #185, #150, .T. ) ;
#158 = COLOUR_RGB ( '',1.000000000000000000, 1.000000000000000000, 1.000000000000000000 ) ;
#159 = ORIENTED_EDGE ( 'NONE', *, *, #157, .F. ) ;
#160 = DIRECTION ( 'NONE',  ( 1.000000000000000000, 4.625929269271485900E-016, -0.0000000000000000000 ) ) ;
#161 = ADVANCED_FACE ( 'NONE', ( #42 ), #134, .F. ) ;
#162 = CARTESIAN_POINT ( 'NONE',  ( 64.80749197114182900, 38.28162091726329700, 2.299999999999999800 ) ) ;
#163 = FILL_AREA_STYLE_COLOUR ( '', #95 ) ;
#164 = DIRECTION ( 'NONE',  ( 1.000000000000000000, 0.0000000000000000000, 0.0000000000000000000 ) ) ;
#165 = EDGE_LOOP ( 'NONE', ( #10, #33, #48, #90 ) ) ;
#166 = PRODUCT_DEFINITION_CONTEXT ( 'detailed design', #200, 'design' ) ;
#167 = AXIS2_PLACEMENT_3D ( 'NONE', #153, #56, #8 ) ;
#168 = CARTESIAN_POINT ( 'NONE',  ( 43.80749197114184300, 23.28162091726329700, 0.0000000000000000000 ) ) ;
#169 = LINE ( 'NONE', #114, #21 ) ;
#170 = EDGE_CURVE ( 'NONE', #91, #197, #169, .T. ) ;
#171 = ORIENTED_EDGE ( 'NONE', *, *, #34, .F. ) ;
#172 = VERTEX_POINT ( 'NONE', #138 ) ;
#173 = VECTOR ( 'NONE', #86, 1000.000000000000000 ) ;
#174 = PLANE ( 'NONE',  #121 ) ;
#175 = MECHANICAL_DESIGN_GEOMETRIC_PRESENTATION_REPRESENTATION (  '', ( #92 ), #187 ) ;
#176 = FACE_OUTER_BOUND ( 'NONE', #165, .T. ) ;
#177 = UNCERTAINTY_MEASURE_WITH_UNIT (LENGTH_MEASURE( 1.000000000000000100E-005 ), #201, 'distance_accuracy_value', 'NONE');
#178 = DIRECTION ( 'NONE',  ( 0.0000000000000000000, -1.000000000000000000, 0.0000000000000000000 ) ) ;
#179 = PLANE ( 'NONE',  #127 ) ;
#180 = EDGE_CURVE ( 'NONE', #25, #129, #147, .T. ) ;
#181 = FILL_AREA_STYLE_COLOUR ( '', #158 ) ;
#182 =( LENGTH_UNIT ( ) NAMED_UNIT ( * ) SI_UNIT ( .MILLI., .METRE. ) );
#183 = MECHANICAL_DESIGN_GEOMETRIC_PRESENTATION_REPRESENTATION (  '', ( #135 ), #32 ) ;
#184 = SURFACE_STYLE_USAGE ( .BOTH. , #194 ) ;
#185 = VERTEX_POINT ( 'NONE', #162 ) ;
#186 = CARTESIAN_POINT ( 'NONE',  ( 64.80749197114182900, 38.28162091726329700, 2.299999999999999800 ) ) ;
#187 =( GEOMETRIC_REPRESENTATION_CONTEXT ( 3 ) GLOBAL_UNCERTAINTY_ASSIGNED_CONTEXT ( ( #29 ) ) GLOBAL_UNIT_ASSIGNED_CONTEXT ( ( #12, #23, #40 ) ) REPRESENTATION_CONTEXT ( 'NONE', 'WORKASPACE' ) );
#188 = VECTOR ( 'NONE', #72, 1000.000000000000000 ) ;
#189 = ORIENTED_EDGE ( 'NONE', *, *, #107, .T. ) ;
#190 = PRESENTATION_STYLE_ASSIGNMENT (( #184 ) ) ;
#191 = VECTOR ( 'NONE', #7, 1000.000000000000000 ) ;
#192 = DIRECTION ( 'NONE',  ( -9.251858538542971800E-016, 1.000000000000000000, -0.0000000000000000000 ) ) ;
#193 = CARTESIAN_POINT ( 'NONE',  ( 43.80749197114184300, 23.28162091726329700, 2.299999999999999800 ) ) ;
#194 = SURFACE_SIDE_STYLE ('',( #87 ) ) ;
#195 = DIRECTION ( 'NONE',  ( 0.0000000000000000000, -0.0000000000000000000, 1.000000000000000000 ) ) ;
#196 = ORIENTED_EDGE ( 'NONE', *, *, #63, .F. ) ;
#197 = VERTEX_POINT ( 'NONE', #9 ) ;
#198 = CARTESIAN_POINT ( 'NONE',  ( 43.80749197114184300, 23.28162091726329700, 2.299999999999999800 ) ) ;
#199 = PRODUCT_RELATED_PRODUCT_CATEGORY ( 'part', '', ( #120 ) ) ;
#200 = APPLICATION_CONTEXT ( 'automotive_design' ) ;
#201 =( LENGTH_UNIT ( ) NAMED_UNIT ( * ) SI_UNIT ( .MILLI., .METRE. ) );
#202 = EDGE_LOOP ( 'NONE', ( #106, #196, #159, #84 ) ) ;
ENDSEC;
END-ISO-10303-21;
