ISO-10303-21;
HEADER;
FILE_DESCRIPTION (( 'STEP AP214' ),
    '1' );
FILE_NAME ('302513.STEP',
    '2019-08-13T05:48:02',
    ( '' ),
    ( '' ),
    'SwSTEP 2.0',
    'SolidWorks 2016',
    '' );
FILE_SCHEMA (( 'AUTOMOTIVE_DESIGN' ));
ENDSEC;

DATA;
#1 =( NAMED_UNIT ( * ) PLANE_ANGLE_UNIT ( ) SI_UNIT ( $, .RADIAN. ) );
#2 = DIRECTION ( 'NONE',  ( -0.0000000000000000000, -0.0000000000000000000, -1.000000000000000000 ) ) ;
#3 = PRESENTATION_LAYER_ASSIGNMENT (  '', '', ( #7 ) ) ;
#4 = CARTESIAN_POINT ( 'NONE',  ( 82.40998928661478800, 41.04216121891350600, 2.299999999999999800 ) ) ;
#5 = SURFACE_STYLE_FILL_AREA ( #11 ) ;
#6 = ORIENTED_EDGE ( 'NONE', *, *, #115, .F. ) ;
#7 = STYLED_ITEM ( 'NONE', ( #63 ), #8 ) ;
#8 = MANIFOLD_SOLID_BREP ( 'Í¹Ì¨-À­Éì1', #109 ) ;
#9 =( NAMED_UNIT ( * ) SI_UNIT ( $, .STERADIAN. ) SOLID_ANGLE_UNIT ( ) );
#10 = CARTESIAN_POINT ( 'NONE',  ( 72.40998928761479200, 41.04216121891350600, 2.299999999999999800 ) ) ;
#11 = FILL_AREA_STYLE ('',( #94 ) ) ;
#12 = CYLINDRICAL_SURFACE ( 'NONE', #37, 9.999999999000003500 ) ;
#13 =( LENGTH_UNIT ( ) NAMED_UNIT ( * ) SI_UNIT ( .MILLI., .METRE. ) );
#14 = LINE ( 'NONE', #41, #88 ) ;
#15 = SHAPE_DEFINITION_REPRESENTATION ( #56, #66 ) ;
#16 = VECTOR ( 'NONE', #23, 1000.000000000000000 ) ;
#17 =( GEOMETRIC_REPRESENTATION_CONTEXT ( 3 ) GLOBAL_UNCERTAINTY_ASSIGNED_CONTEXT ( ( #121 ) ) GLOBAL_UNIT_ASSIGNED_CONTEXT ( ( #100, #45, #9 ) ) REPRESENTATION_CONTEXT ( 'NONE', 'WORKASPACE' ) );
#18 = ADVANCED_FACE ( 'NONE', ( #108 ), #70, .T. ) ;
#19 = AXIS2_PLACEMENT_3D ( 'NONE', #81, #57, #138 ) ;
#20 = DIRECTION ( 'NONE',  ( 1.000000000000000000, 0.0000000000000000000, 0.0000000000000000000 ) ) ;
#21 = DIRECTION ( 'NONE',  ( 0.0000000000000000000, 0.0000000000000000000, 1.000000000000000000 ) ) ;
#22 = FACE_OUTER_BOUND ( 'NONE', #105, .T. ) ;
#23 = DIRECTION ( 'NONE',  ( -0.0000000000000000000, -0.0000000000000000000, -1.000000000000000000 ) ) ;
#24 = AXIS2_PLACEMENT_3D ( 'NONE', #10, #113, #20 ) ;
#25 = FACE_OUTER_BOUND ( 'NONE', #117, .T. ) ;
#26 = DIRECTION ( 'NONE',  ( 1.000000000000000000, 0.0000000000000000000, -0.0000000000000000000 ) ) ;
#27 = ORIENTED_EDGE ( 'NONE', *, *, #98, .F. ) ;
#28 = PRODUCT_CONTEXT ( 'NONE', #129, 'mechanical' ) ;
#29 = FACE_OUTER_BOUND ( 'NONE', #50, .T. ) ;
#30 = PRODUCT_DEFINITION_FORMATION_WITH_SPECIFIED_SOURCE ( 'ÈÎºÎ', '', #118, .NOT_KNOWN. ) ;
#31 = DIRECTION ( 'NONE',  ( 1.000000000000000000, 0.0000000000000000000, -0.0000000000000000000 ) ) ;
#32 = CARTESIAN_POINT ( 'NONE',  ( 62.40998928861478100, 41.04216121891350600, 2.299999999999999800 ) ) ;
#33 = SURFACE_SIDE_STYLE ('',( #107 ) ) ;
#34 = PRODUCT_RELATED_PRODUCT_CATEGORY ( 'part', '', ( #118 ) ) ;
#35 = VERTEX_POINT ( 'NONE', #68 ) ;
#36 = CARTESIAN_POINT ( 'NONE',  ( 72.40998928761479200, 41.04216121891350600, 0.0000000000000000000 ) ) ;
#37 = AXIS2_PLACEMENT_3D ( 'NONE', #99, #140, #93 ) ;
#38 = ORIENTED_EDGE ( 'NONE', *, *, #125, .T. ) ;
#39 = CARTESIAN_POINT ( 'NONE',  ( 72.40998928761479200, 41.04216121891350600, 2.299999999999999800 ) ) ;
#40 = ORIENTED_EDGE ( 'NONE', *, *, #71, .F. ) ;
#41 = CARTESIAN_POINT ( 'NONE',  ( 62.40998928861478100, 41.04216121891350600, 2.299999999999999800 ) ) ;
#42 = CARTESIAN_POINT ( 'NONE',  ( 72.40998928761479200, 41.04216121891350600, 0.0000000000000000000 ) ) ;
#43 = APPLICATION_CONTEXT ( 'automotive_design' ) ;
#44 = CIRCLE ( 'NONE', #24, 9.999999999000003500 ) ;
#45 =( NAMED_UNIT ( * ) PLANE_ANGLE_UNIT ( ) SI_UNIT ( $, .RADIAN. ) );
#46 = ADVANCED_FACE ( 'NONE', ( #22 ), #128, .T. ) ;
#47 = COLOUR_RGB ( '',1.000000000000000000, 1.000000000000000000, 1.000000000000000000 ) ;
#48 = PLANE ( 'NONE',  #62 ) ;
#49 =( NAMED_UNIT ( * ) SI_UNIT ( $, .STERADIAN. ) SOLID_ANGLE_UNIT ( ) );
#50 = EDGE_LOOP ( 'NONE', ( #27, #6 ) ) ;
#51 = ORIENTED_EDGE ( 'NONE', *, *, #83, .T. ) ;
#52 = CIRCLE ( 'NONE', #90, 9.999999999000003500 ) ;
#53 = AXIS2_PLACEMENT_3D ( 'NONE', #139, #91, #127 ) ;
#54 = CARTESIAN_POINT ( 'NONE',  ( 62.40998928861478100, 41.04216121891350600, 0.0000000000000000000 ) ) ;
#55 = SURFACE_SIDE_STYLE ('',( #5 ) ) ;
#56 = PRODUCT_DEFINITION_SHAPE ( 'NONE', 'NONE',  #85 ) ;
#57 = DIRECTION ( 'NONE',  ( -0.0000000000000000000, -0.0000000000000000000, -1.000000000000000000 ) ) ;
#58 = COLOUR_RGB ( '',1.000000000000000000, 1.000000000000000000, 1.000000000000000000 ) ;
#59 = CARTESIAN_POINT ( 'NONE',  ( 72.40998928761479200, 41.04216121891350600, 0.0000000000000000000 ) ) ;
#60 = FILL_AREA_STYLE ('',( #61 ) ) ;
#61 = FILL_AREA_STYLE_COLOUR ( '', #47 ) ;
#62 = AXIS2_PLACEMENT_3D ( 'NONE', #36, #84, #26 ) ;
#63 = PRESENTATION_STYLE_ASSIGNMENT (( #67 ) ) ;
#64 = ORIENTED_EDGE ( 'NONE', *, *, #125, .F. ) ;
#65 = CIRCLE ( 'NONE', #77, 9.999999999000003500 ) ;
#66 = ADVANCED_BREP_SHAPE_REPRESENTATION ( '302513', ( #8, #137 ), #69 ) ;
#67 = SURFACE_STYLE_USAGE ( .BOTH. , #55 ) ;
#68 = CARTESIAN_POINT ( 'NONE',  ( 82.40998928661478800, 41.04216121891350600, 2.299999999999999800 ) ) ;
#69 =( GEOMETRIC_REPRESENTATION_CONTEXT ( 3 ) GLOBAL_UNCERTAINTY_ASSIGNED_CONTEXT ( ( #134 ) ) GLOBAL_UNIT_ASSIGNED_CONTEXT ( ( #13, #1, #49 ) ) REPRESENTATION_CONTEXT ( 'NONE', 'WORKASPACE' ) );
#70 = PLANE ( 'NONE',  #86 ) ;
#71 = EDGE_CURVE ( 'NONE', #35, #97, #44, .T. ) ;
#72 = CIRCLE ( 'NONE', #53, 9.999999999000003500 ) ;
#73 = APPLICATION_PROTOCOL_DEFINITION ( 'draft international standard', 'automotive_design', 1998, #129 ) ;
#74 = DIRECTION ( 'NONE',  ( 1.000000000000000000, 0.0000000000000000000, 0.0000000000000000000 ) ) ;
#75 = PRESENTATION_STYLE_ASSIGNMENT (( #132 ) ) ;
#76 = LINE ( 'NONE', #4, #16 ) ;
#77 = AXIS2_PLACEMENT_3D ( 'NONE', #59, #95, #104 ) ;
#78 =( GEOMETRIC_REPRESENTATION_CONTEXT ( 3 ) GLOBAL_UNCERTAINTY_ASSIGNED_CONTEXT ( ( #80 ) ) GLOBAL_UNIT_ASSIGNED_CONTEXT ( ( #102, #116, #130 ) ) REPRESENTATION_CONTEXT ( 'NONE', 'WORKASPACE' ) );
#79 = MECHANICAL_DESIGN_GEOMETRIC_PRESENTATION_REPRESENTATION (  '', ( #7 ), #17 ) ;
#80 = UNCERTAINTY_MEASURE_WITH_UNIT (LENGTH_MEASURE( 1.000000000000000100E-005 ), #102, 'distance_accuracy_value', 'NONE');
#81 = CARTESIAN_POINT ( 'NONE',  ( 72.40998928761479200, 41.04216121891350600, 2.299999999999999800 ) ) ;
#82 = CARTESIAN_POINT ( 'NONE',  ( 0.0000000000000000000, 0.0000000000000000000, 0.0000000000000000000 ) ) ;
#83 = EDGE_CURVE ( 'NONE', #97, #35, #72, .T. ) ;
#84 = DIRECTION ( 'NONE',  ( 0.0000000000000000000, 0.0000000000000000000, 1.000000000000000000 ) ) ;
#85 = PRODUCT_DEFINITION ( 'Î´Öª', '', #30, #123 ) ;
#86 = AXIS2_PLACEMENT_3D ( 'NONE', #39, #21, #31 ) ;
#87 = VERTEX_POINT ( 'NONE', #54 ) ;
#88 = VECTOR ( 'NONE', #2, 1000.000000000000000 ) ;
#89 = ADVANCED_FACE ( 'NONE', ( #25 ), #12, .T. ) ;
#90 = AXIS2_PLACEMENT_3D ( 'NONE', #42, #131, #96 ) ;
#91 = DIRECTION ( 'NONE',  ( 0.0000000000000000000, 0.0000000000000000000, 1.000000000000000000 ) ) ;
#92 = ORIENTED_EDGE ( 'NONE', *, *, #115, .T. ) ;
#93 = DIRECTION ( 'NONE',  ( -1.000000000000000000, 0.0000000000000000000, 0.0000000000000000000 ) ) ;
#94 = FILL_AREA_STYLE_COLOUR ( '', #58 ) ;
#95 = DIRECTION ( 'NONE',  ( 0.0000000000000000000, 0.0000000000000000000, 1.000000000000000000 ) ) ;
#96 = DIRECTION ( 'NONE',  ( 1.000000000000000000, 0.0000000000000000000, 0.0000000000000000000 ) ) ;
#97 = VERTEX_POINT ( 'NONE', #32 ) ;
#98 = EDGE_CURVE ( 'NONE', #87, #101, #65, .T. ) ;
#99 = CARTESIAN_POINT ( 'NONE',  ( 72.40998928761479200, 41.04216121891350600, 2.299999999999999800 ) ) ;
#100 =( LENGTH_UNIT ( ) NAMED_UNIT ( * ) SI_UNIT ( .MILLI., .METRE. ) );
#101 = VERTEX_POINT ( 'NONE', #112 ) ;
#102 =( LENGTH_UNIT ( ) NAMED_UNIT ( * ) SI_UNIT ( .MILLI., .METRE. ) );
#103 = MECHANICAL_DESIGN_GEOMETRIC_PRESENTATION_REPRESENTATION (  '', ( #133 ), #78 ) ;
#104 = DIRECTION ( 'NONE',  ( 1.000000000000000000, 0.0000000000000000000, 0.0000000000000000000 ) ) ;
#105 = EDGE_LOOP ( 'NONE', ( #124, #136, #38, #119 ) ) ;
#106 = APPLICATION_PROTOCOL_DEFINITION ( 'draft international standard', 'automotive_design', 1998, #43 ) ;
#107 = SURFACE_STYLE_FILL_AREA ( #60 ) ;
#108 = FACE_OUTER_BOUND ( 'NONE', #114, .T. ) ;
#109 = CLOSED_SHELL ( 'NONE', ( #89, #46, #18, #110 ) ) ;
#110 = ADVANCED_FACE ( 'NONE', ( #29 ), #48, .F. ) ;
#111 = ORIENTED_EDGE ( 'NONE', *, *, #135, .T. ) ;
#112 = CARTESIAN_POINT ( 'NONE',  ( 82.40998928661478800, 41.04216121891350600, 0.0000000000000000000 ) ) ;
#113 = DIRECTION ( 'NONE',  ( 0.0000000000000000000, 0.0000000000000000000, 1.000000000000000000 ) ) ;
#114 = EDGE_LOOP ( 'NONE', ( #51, #126 ) ) ;
#115 = EDGE_CURVE ( 'NONE', #101, #87, #52, .T. ) ;
#116 =( NAMED_UNIT ( * ) PLANE_ANGLE_UNIT ( ) SI_UNIT ( $, .RADIAN. ) );
#117 = EDGE_LOOP ( 'NONE', ( #40, #111, #92, #64 ) ) ;
#118 = PRODUCT ( '302513', '302513', '', ( #28 ) ) ;
#119 = ORIENTED_EDGE ( 'NONE', *, *, #98, .T. ) ;
#120 = DIRECTION ( 'NONE',  ( 0.0000000000000000000, 0.0000000000000000000, 1.000000000000000000 ) ) ;
#121 = UNCERTAINTY_MEASURE_WITH_UNIT (LENGTH_MEASURE( 1.000000000000000100E-005 ), #100, 'distance_accuracy_value', 'NONE');
#122 = PRESENTATION_LAYER_ASSIGNMENT (  '', '', ( #133 ) ) ;
#123 = PRODUCT_DEFINITION_CONTEXT ( 'detailed design', #43, 'design' ) ;
#124 = ORIENTED_EDGE ( 'NONE', *, *, #135, .F. ) ;
#125 = EDGE_CURVE ( 'NONE', #97, #87, #14, .T. ) ;
#126 = ORIENTED_EDGE ( 'NONE', *, *, #71, .T. ) ;
#127 = DIRECTION ( 'NONE',  ( 1.000000000000000000, 0.0000000000000000000, 0.0000000000000000000 ) ) ;
#128 = CYLINDRICAL_SURFACE ( 'NONE', #19, 9.999999999000003500 ) ;
#129 = APPLICATION_CONTEXT ( 'automotive_design' ) ;
#130 =( NAMED_UNIT ( * ) SI_UNIT ( $, .STERADIAN. ) SOLID_ANGLE_UNIT ( ) );
#131 = DIRECTION ( 'NONE',  ( 0.0000000000000000000, 0.0000000000000000000, 1.000000000000000000 ) ) ;
#132 = SURFACE_STYLE_USAGE ( .BOTH. , #33 ) ;
#133 = STYLED_ITEM ( 'NONE', ( #75 ), #66 ) ;
#134 = UNCERTAINTY_MEASURE_WITH_UNIT (LENGTH_MEASURE( 1.000000000000000100E-005 ), #13, 'distance_accuracy_value', 'NONE');
#135 = EDGE_CURVE ( 'NONE', #35, #101, #76, .T. ) ;
#136 = ORIENTED_EDGE ( 'NONE', *, *, #83, .F. ) ;
#137 = AXIS2_PLACEMENT_3D ( 'NONE', #82, #120, #74 ) ;
#138 = DIRECTION ( 'NONE',  ( -1.000000000000000000, 0.0000000000000000000, 0.0000000000000000000 ) ) ;
#139 = CARTESIAN_POINT ( 'NONE',  ( 72.40998928761479200, 41.04216121891350600, 2.299999999999999800 ) ) ;
#140 = DIRECTION ( 'NONE',  ( -0.0000000000000000000, -0.0000000000000000000, -1.000000000000000000 ) ) ;
ENDSEC;
END-ISO-10303-21;
