ISO-10303-21;
HEADER;
FILE_DESCRIPTION (( 'STEP AP203' ),
    '1' );
FILE_NAME ('365502.STEP',
    '2019-07-24T02:14:08',
    ( '' ),
    ( '' ),
    'SwSTEP 2.0',
    'SolidWorks 2016',
    '' );
FILE_SCHEMA (( 'CONFIG_CONTROL_DESIGN' ));
ENDSEC;

DATA;
#1 = LOCAL_TIME ( 10, 14, 8.000000000000000000, #238 ) ;
#2 = ORIENTED_EDGE ( 'NONE', *, *, #343, .T. ) ;
#3 = DATE_AND_TIME ( #189, #133 ) ;
#4 = LINE ( 'NONE', #97, #65 ) ;
#5 = CC_DESIGN_PERSON_AND_ORGANIZATION_ASSIGNMENT ( #171, #151, ( #116 ) ) ;
#6 = VERTEX_POINT ( 'NONE', #262 ) ;
#7 = PERSON_AND_ORGANIZATION ( #335, #242 ) ;
#8 = CALENDAR_DATE ( 2019, 24, 7 ) ;
#9 = SECURITY_CLASSIFICATION ( '', '', #315 ) ;
#10 = DIRECTION ( 'NONE',  ( -0.7071067811865459100, 0.7071067811865491300, 0.0000000000000000000 ) ) ;
#11 = PERSON_AND_ORGANIZATION ( #335, #242 ) ;
#12 = PERSON_AND_ORGANIZATION ( #335, #242 ) ;
#13 = VECTOR ( 'NONE', #280, 1000.000000000000000 ) ;
#14 = DIRECTION ( 'NONE',  ( 0.9238795325112877400, 0.3826834323650872300, 0.0000000000000000000 ) ) ;
#15 = ORIENTED_EDGE ( 'NONE', *, *, #270, .T. ) ;
#16 = CARTESIAN_POINT ( 'NONE',  ( 16.62476252515132200, 6.247123494192758000, 0.0000000000000000000 ) ) ;
#17 = CALENDAR_DATE ( 2019, 24, 7 ) ;
#18 = VECTOR ( 'NONE', #333, 1000.000000000000000 ) ;
#19 = CC_DESIGN_PERSON_AND_ORGANIZATION_ASSIGNMENT ( #106, #101, ( #108 ) ) ;
#20 =( LENGTH_UNIT ( ) NAMED_UNIT ( * ) SI_UNIT ( .MILLI., .METRE. ) );
#21 = COORDINATED_UNIVERSAL_TIME_OFFSET ( 8, 0, .AHEAD. ) ;
#22 = LINE ( 'NONE', #45, #161 ) ;
#23 = CARTESIAN_POINT ( 'NONE',  ( 16.62476252515132200, 6.247123494192758000, 0.0000000000000000000 ) ) ;
#24 = LINE ( 'NONE', #338, #285 ) ;
#25 = ADVANCED_FACE ( 'NONE', ( #160 ), #204, .F. ) ;
#26 = APPROVAL_STATUS ( 'not_yet_approved' ) ;
#27 = AXIS2_PLACEMENT_3D ( 'NONE', #145, #162, #193 ) ;
#28 = VERTEX_POINT ( 'NONE', #105 ) ;
#29 = LINE ( 'NONE', #16, #292 ) ;
#30 = DATE_TIME_ROLE ( 'classification_date' ) ;
#31 = ADVANCED_BREP_SHAPE_REPRESENTATION ( '365502', ( #131, #27 ), #34 ) ;
#32 = ORIENTED_EDGE ( 'NONE', *, *, #267, .T. ) ;
#33 = COORDINATED_UNIVERSAL_TIME_OFFSET ( 8, 0, .AHEAD. ) ;
#34 =( GEOMETRIC_REPRESENTATION_CONTEXT ( 3 ) GLOBAL_UNCERTAINTY_ASSIGNED_CONTEXT ( ( #77 ) ) GLOBAL_UNIT_ASSIGNED_CONTEXT ( ( #20, #191, #164 ) ) REPRESENTATION_CONTEXT ( 'NONE', 'WORKASPACE' ) );
#35 = PRODUCT_DEFINITION_SHAPE ( 'NONE', 'NONE',  #243 ) ;
#36 = DATE_AND_TIME ( #220, #297 ) ;
#37 = ORIENTED_EDGE ( 'NONE', *, *, #209, .T. ) ;
#38 = PRODUCT_RELATED_PRODUCT_CATEGORY ( 'detail', '', ( #116 ) ) ;
#39 = LOCAL_TIME ( 10, 14, 8.000000000000000000, #21 ) ;
#40 = DIRECTION ( 'NONE',  ( -0.0000000000000000000, -0.0000000000000000000, -1.000000000000000000 ) ) ;
#41 = CARTESIAN_POINT ( 'NONE',  ( 2.484127786961122000, 6.250746952420601400, 10.00000000000000000 ) ) ;
#42 = PRODUCT_DEFINITION_FORMATION_WITH_SPECIFIED_SOURCE ( 'ÈÎºÎ', '', #116, .NOT_KNOWN. ) ;
#43 = VERTEX_POINT ( 'NONE', #67 ) ;
#44 = DATE_AND_TIME ( #249, #330 ) ;
#45 = CARTESIAN_POINT ( 'NONE',  ( 6.624762525151322900, 16.24712349419275600, 0.0000000000000000000 ) ) ;
#46 = APPLICATION_CONTEXT ( 'configuration controlled 3d designs of mechanical parts and assemblies' ) ;
#47 = PLANE ( 'NONE',  #329 ) ;
#48 = PERSON_AND_ORGANIZATION ( #335, #242 ) ;
#49 = ADVANCED_FACE ( 'NONE', ( #345 ), #157, .F. ) ;
#50 = CARTESIAN_POINT ( 'NONE',  ( 0.0000000000000000000, 0.0000000000000000000, 0.0000000000000000000 ) ) ;
#51 = PERSON_AND_ORGANIZATION_ROLE ( 'design_supplier' ) ;
#52 = PERSON_AND_ORGANIZATION ( #335, #242 ) ;
#53 = EDGE_LOOP ( 'NONE', ( #80, #130, #206, #37 ) ) ;
#54 = APPLICATION_PROTOCOL_DEFINITION ( 'international standard', 'config_control_design', 1994, #223 ) ;
#55 = APPROVAL_STATUS ( 'not_yet_approved' ) ;
#56 = ORIENTED_EDGE ( 'NONE', *, *, #177, .F. ) ;
#57 = PERSON_AND_ORGANIZATION ( #335, #242 ) ;
#58 = LOCAL_TIME ( 10, 14, 8.000000000000000000, #274 ) ;
#59 = CC_DESIGN_DATE_AND_TIME_ASSIGNMENT ( #175, #228, ( #243 ) ) ;
#60 = COORDINATED_UNIVERSAL_TIME_OFFSET ( 8, 0, .AHEAD. ) ;
#61 = LINE ( 'NONE', #305, #13 ) ;
#62 = APPROVAL ( #100, 'Î´Ö¸¶¨' ) ;
#63 = VECTOR ( 'NONE', #14, 1000.000000000000200 ) ;
#64 = DATE_AND_TIME ( #260, #72 ) ;
#65 = VECTOR ( 'NONE', #215, 1000.000000000000200 ) ;
#66 = CARTESIAN_POINT ( 'NONE',  ( 16.62476252515132200, 6.247123494192758000, 10.00000000000000000 ) ) ;
#67 = CARTESIAN_POINT ( 'NONE',  ( 16.62476252515132200, 6.247123494192758000, 10.00000000000000000 ) ) ;
#68 = ORIENTED_EDGE ( 'NONE', *, *, #117, .T. ) ;
#69 = LINE ( 'NONE', #148, #340 ) ;
#70 = DIRECTION ( 'NONE',  ( -0.3826834323650872300, 0.9238795325112878500, 0.0000000000000000000 ) ) ;
#71 = ORIENTED_EDGE ( 'NONE', *, *, #88, .T. ) ;
#72 = LOCAL_TIME ( 10, 14, 8.000000000000000000, #196 ) ;
#73 = PRODUCT_DEFINITION_FORMATION_WITH_SPECIFIED_SOURCE ( 'ÈÎºÎ', '', #308, .NOT_KNOWN. ) ;
#74 = CARTESIAN_POINT ( 'NONE',  ( 6.628385983379189400, 2.106488756002515000, 10.00000000000000000 ) ) ;
#75 = APPLICATION_PROTOCOL_DEFINITION ( 'international standard', 'config_control_design', 1994, #46 ) ;
#76 = LOCAL_TIME ( 10, 14, 8.000000000000000000, #266 ) ;
#77 = UNCERTAINTY_MEASURE_WITH_UNIT (LENGTH_MEASURE( 1.000000000000000100E-005 ), #20, 'distance_accuracy_value', 'NONE');
#78 = CC_DESIGN_APPROVAL ( #62, ( #42 ) ) ;
#79 = APPROVAL_ROLE ( '' ) ;
#80 = ORIENTED_EDGE ( 'NONE', *, *, #227, .T. ) ;
#81 = EDGE_LOOP ( 'NONE', ( #90, #179, #283, #32 ) ) ;
#82 = AXIS2_PLACEMENT_3D ( 'NONE', #298, #135, #327 ) ;
#83 = EDGE_LOOP ( 'NONE', ( #194, #213, #98, #68, #319 ) ) ;
#84 = APPROVAL ( #252, 'Î´Ö¸¶¨' ) ;
#85 = CARTESIAN_POINT ( 'NONE',  ( 6.628385983379189400, 2.106488756002515000, 0.0000000000000000000 ) ) ;
#86 = ORIENTED_EDGE ( 'NONE', *, *, #177, .T. ) ;
#87 = CARTESIAN_POINT ( 'NONE',  ( 6.624762525151322900, 16.24712349419275600, 10.00000000000000000 ) ) ;
#88 = EDGE_CURVE ( 'NONE', #318, #279, #198, .T. ) ;
#89 = DIRECTION ( 'NONE',  ( -0.0000000000000000000, -0.0000000000000000000, -1.000000000000000000 ) ) ;
#90 = ORIENTED_EDGE ( 'NONE', *, *, #231, .T. ) ;
#91 = LINE ( 'NONE', #244, #241 ) ;
#92 = COORDINATED_UNIVERSAL_TIME_OFFSET ( 8, 0, .AHEAD. ) ;
#93 = DIRECTION ( 'NONE',  ( 0.9238795325112895100, -0.3826834323650832300, 0.0000000000000000000 ) ) ;
#94 = CARTESIAN_POINT ( 'NONE',  ( 6.624762525151322900, 16.24712349419275600, 10.00000000000000000 ) ) ;
#95 = ORIENTED_EDGE ( 'NONE', *, *, #211, .F. ) ;
#96 = CC_DESIGN_PERSON_AND_ORGANIZATION_ASSIGNMENT ( #256, #149, ( #308 ) ) ;
#97 = CARTESIAN_POINT ( 'NONE',  ( 6.628385983379189400, 2.106488756002515000, 10.00000000000000000 ) ) ;
#98 = ORIENTED_EDGE ( 'NONE', *, *, #281, .T. ) ;
#99 = FACE_OUTER_BOUND ( 'NONE', #233, .T. ) ;
#100 = APPROVAL_STATUS ( 'not_yet_approved' ) ;
#101 = PERSON_AND_ORGANIZATION_ROLE ( 'creator' ) ;
#102 = CC_DESIGN_APPROVAL ( #84, ( #73 ) ) ;
#103 = ORIENTED_EDGE ( 'NONE', *, *, #261, .F. ) ;
#104 = VECTOR ( 'NONE', #326, 1000.000000000000200 ) ;
#105 = CARTESIAN_POINT ( 'NONE',  ( 16.62476252515132200, 16.24712349419276000, 0.0000000000000000000 ) ) ;
#106 = PERSON_AND_ORGANIZATION ( #335, #242 ) ;
#107 = CC_DESIGN_PERSON_AND_ORGANIZATION_ASSIGNMENT ( #11, #173, ( #9 ) ) ;
#108 = PRODUCT_DEFINITION ( 'Î´Öª', '', #42, #232 ) ;
#109 = DATE_AND_TIME ( #178, #328 ) ;
#110 = ORIENTED_EDGE ( 'NONE', *, *, #211, .T. ) ;
#111 = LINE ( 'NONE', #137, #63 ) ;
#112 = PLANE ( 'NONE',  #82 ) ;
#113 = PLANE ( 'NONE',  #181 ) ;
#114 = LINE ( 'NONE', #143, #154 ) ;
#115 = DIRECTION ( 'NONE',  ( 0.7071067811865459100, -0.7071067811865491300, -0.0000000000000000000 ) ) ;
#116 = PRODUCT ( '365502', '365502', '', ( #310 ) ) ;
#117 = EDGE_CURVE ( 'NONE', #318, #265, #225, .T. ) ;
#118 = ADVANCED_FACE ( 'NONE', ( #99 ), #208, .F. ) ;
#119 = PLANE ( 'NONE',  #185 ) ;
#120 = ADVANCED_FACE ( 'NONE', ( #259 ), #112, .F. ) ;
#121 = ORIENTED_EDGE ( 'NONE', *, *, #195, .F. ) ;
#122 = APPROVAL_PERSON_ORGANIZATION ( #184, #153, #248 ) ;
#123 = CC_DESIGN_PERSON_AND_ORGANIZATION_ASSIGNMENT ( #48, #341, ( #42 ) ) ;
#124 = CC_DESIGN_APPROVAL ( #293, ( #9 ) ) ;
#125 = APPLICATION_CONTEXT ( 'configuration controlled 3d designs of mechanical parts and assemblies' ) ;
#126 = VERTEX_POINT ( 'NONE', #271 ) ;
#127 = PRODUCT_DEFINITION_SHAPE ( 'NONE', 'NONE',  #108 ) ;
#128 = DATE_TIME_ROLE ( 'classification_date' ) ;
#129 = AXIS2_PLACEMENT_3D ( 'NONE', #269, #264, #10 ) ;
#130 = ORIENTED_EDGE ( 'NONE', *, *, #88, .F. ) ;
#131 = MANIFOLD_SOLID_BREP ( 'Í¹Ì¨-À­Éì1', #339 ) ;
#132 = VECTOR ( 'NONE', #89, 1000.000000000000000 ) ;
#133 = LOCAL_TIME ( 10, 14, 8.000000000000000000, #346 ) ;
#134 = DIRECTION ( 'NONE',  ( -1.000000000000000000, 0.0000000000000000000, 0.0000000000000000000 ) ) ;
#135 = DIRECTION ( 'NONE',  ( 3.469446951953614200E-016, -1.000000000000000000, 0.0000000000000000000 ) ) ;
#136 = CC_DESIGN_DATE_AND_TIME_ASSIGNMENT ( #109, #30, ( #9 ) ) ;
#137 = CARTESIAN_POINT ( 'NONE',  ( 6.628385983379189400, 2.106488756002515000, 0.0000000000000000000 ) ) ;
#138 = CC_DESIGN_PERSON_AND_ORGANIZATION_ASSIGNMENT ( #57, #51, ( #42 ) ) ;
#139 = DIRECTION ( 'NONE',  ( 0.7071067811865459100, -0.7071067811865491300, -0.0000000000000000000 ) ) ;
#140 = ORIENTED_EDGE ( 'NONE', *, *, #231, .F. ) ;
#141 = DIRECTION ( 'NONE',  ( 0.0000000000000000000, 0.0000000000000000000, 1.000000000000000000 ) ) ;
#142 = FACE_OUTER_BOUND ( 'NONE', #83, .T. ) ;
#143 = CARTESIAN_POINT ( 'NONE',  ( 16.62476252515132200, 6.247123494192758000, 10.00000000000000000 ) ) ;
#144 = CARTESIAN_POINT ( 'NONE',  ( 6.624762525151322900, 16.24712349419275600, 0.0000000000000000000 ) ) ;
#145 = CARTESIAN_POINT ( 'NONE',  ( 0.0000000000000000000, 0.0000000000000000000, 0.0000000000000000000 ) ) ;
#146 = ORIENTED_EDGE ( 'NONE', *, *, #117, .F. ) ;
#147 = LINE ( 'NONE', #74, #18 ) ;
#148 = CARTESIAN_POINT ( 'NONE',  ( 16.62476252515132200, 16.24712349419276000, 10.00000000000000000 ) ) ;
#149 = PERSON_AND_ORGANIZATION_ROLE ( 'design_owner' ) ;
#150 = ORIENTED_EDGE ( 'NONE', *, *, #227, .F. ) ;
#151 = PERSON_AND_ORGANIZATION_ROLE ( 'design_owner' ) ;
#152 = APPROVAL_ROLE ( '' ) ;
#153 = APPROVAL ( #26, 'Î´Ö¸¶¨' ) ;
#154 = VECTOR ( 'NONE', #245, 1000.000000000000000 ) ;
#155 = CC_DESIGN_DATE_AND_TIME_ASSIGNMENT ( #284, #128, ( #304 ) ) ;
#156 = LINE ( 'NONE', #159, #180 ) ;
#157 = PLANE ( 'NONE',  #311 ) ;
#158 = APPROVAL_DATE_TIME ( #230, #84 ) ;
#159 = CARTESIAN_POINT ( 'NONE',  ( 16.62476252515132200, 16.24712349419276000, 10.00000000000000000 ) ) ;
#160 = FACE_OUTER_BOUND ( 'NONE', #81, .T. ) ;
#161 = VECTOR ( 'NONE', #337, 1000.000000000000200 ) ;
#162 = DIRECTION ( 'NONE',  ( 0.0000000000000000000, 0.0000000000000000000, 1.000000000000000000 ) ) ;
#163 = CARTESIAN_POINT ( 'NONE',  ( 6.624762525151322900, 16.24712349419275600, 10.00000000000000000 ) ) ;
#164 =( NAMED_UNIT ( * ) SI_UNIT ( $, .STERADIAN. ) SOLID_ANGLE_UNIT ( ) );
#165 = DIRECTION ( 'NONE',  ( 0.3826834323650831800, 0.9238795325112894000, 0.0000000000000000000 ) ) ;
#166 = APPROVAL_STATUS ( 'not_yet_approved' ) ;
#167 = APPLICATION_PROTOCOL_DEFINITION ( 'international standard', 'config_control_design', 1994, #188 ) ;
#168 = EDGE_LOOP ( 'NONE', ( #239, #95, #146, #71 ) ) ;
#169 = DESIGN_CONTEXT ( 'detailed design', #223, 'design' ) ;
#170 = LINE ( 'NONE', #41, #312 ) ;
#171 = PERSON_AND_ORGANIZATION ( #335, #242 ) ;
#172 = CC_DESIGN_APPROVAL ( #321, ( #304 ) ) ;
#173 = PERSON_AND_ORGANIZATION_ROLE ( 'classification_officer' ) ;
#174 = PERSON_AND_ORGANIZATION ( #335, #242 ) ;
#175 = DATE_AND_TIME ( #8, #58 ) ;
#176 = APPROVAL_DATE_TIME ( #288, #217 ) ;
#177 = EDGE_CURVE ( 'NONE', #207, #250, #111, .T. ) ;
#178 = CALENDAR_DATE ( 2019, 24, 7 ) ;
#179 = ORIENTED_EDGE ( 'NONE', *, *, #209, .F. ) ;
#180 = VECTOR ( 'NONE', #40, 1000.000000000000000 ) ;
#181 = AXIS2_PLACEMENT_3D ( 'NONE', #192, #218, #275 ) ;
#182 = COORDINATED_UNIVERSAL_TIME_OFFSET ( 8, 0, .AHEAD. ) ;
#183 = CARTESIAN_POINT ( 'NONE',  ( 16.62476252515132200, 16.24712349419276000, 0.0000000000000000000 ) ) ;
#184 = PERSON_AND_ORGANIZATION ( #335, #242 ) ;
#185 = AXIS2_PLACEMENT_3D ( 'NONE', #276, #246, #278 ) ;
#186 = DIRECTION ( 'NONE',  ( -1.000000000000000000, -3.469446951953614200E-016, 0.0000000000000000000 ) ) ;
#187 = VECTOR ( 'NONE', #240, 1000.000000000000000 ) ;
#188 = APPLICATION_CONTEXT ( 'configuration controlled 3d designs of mechanical parts and assemblies' ) ;
#189 = CALENDAR_DATE ( 2019, 24, 7 ) ;
#190 = CC_DESIGN_SECURITY_CLASSIFICATION ( #9, ( #73 ) ) ;
#191 =( NAMED_UNIT ( * ) PLANE_ANGLE_UNIT ( ) SI_UNIT ( $, .RADIAN. ) );
#192 = CARTESIAN_POINT ( 'NONE',  ( 0.0000000000000000000, 0.0000000000000000000, 10.00000000000000000 ) ) ;
#193 = DIRECTION ( 'NONE',  ( 1.000000000000000000, 0.0000000000000000000, 0.0000000000000000000 ) ) ;
#194 = ORIENTED_EDGE ( 'NONE', *, *, #261, .T. ) ;
#195 = EDGE_CURVE ( 'NONE', #265, #6, #91, .T. ) ;
#196 = COORDINATED_UNIVERSAL_TIME_OFFSET ( 8, 0, .AHEAD. ) ;
#197 = APPROVAL_ROLE ( '' ) ;
#198 = LINE ( 'NONE', #87, #132 ) ;
#199 = APPROVAL_PERSON_ORGANIZATION ( #273, #321, #200 ) ;
#200 = APPROVAL_ROLE ( '' ) ;
#201 = CC_DESIGN_PERSON_AND_ORGANIZATION_ASSIGNMENT ( #7, #347, ( #304 ) ) ;
#202 = PRODUCT_RELATED_PRODUCT_CATEGORY ( 'detail', '', ( #308 ) ) ;
#203 = VERTEX_POINT ( 'NONE', #236 ) ;
#204 = PLANE ( 'NONE',  #290 ) ;
#205 = CC_DESIGN_SECURITY_CLASSIFICATION ( #304, ( #42 ) ) ;
#206 = ORIENTED_EDGE ( 'NONE', *, *, #281, .F. ) ;
#207 = VERTEX_POINT ( 'NONE', #85 ) ;
#208 = PLANE ( 'NONE',  #129 ) ;
#209 = EDGE_CURVE ( 'NONE', #126, #28, #156, .T. ) ;
#210 = CARTESIAN_POINT ( 'NONE',  ( 6.628385983379189400, 2.106488756002515000, 10.00000000000000000 ) ) ;
#211 = EDGE_CURVE ( 'NONE', #265, #203, #170, .T. ) ;
#212 = DIRECTION ( 'NONE',  ( -0.9238795325112877400, -0.3826834323650871700, 0.0000000000000000000 ) ) ;
#213 = ORIENTED_EDGE ( 'NONE', *, *, #258, .T. ) ;
#214 = APPROVAL_DATE_TIME ( #44, #153 ) ;
#215 = DIRECTION ( 'NONE',  ( 0.9238795325112877400, 0.3826834323650872300, 0.0000000000000000000 ) ) ;
#216 = DIRECTION ( 'NONE',  ( 0.0000000000000000000, 1.000000000000000000, 0.0000000000000000000 ) ) ;
#217 = APPROVAL ( #55, 'Î´Ö¸¶¨' ) ;
#218 = DIRECTION ( 'NONE',  ( 0.0000000000000000000, 0.0000000000000000000, 1.000000000000000000 ) ) ;
#219 = PERSON_AND_ORGANIZATION ( #335, #242 ) ;
#220 = CALENDAR_DATE ( 2019, 24, 7 ) ;
#221 = DIRECTION ( 'NONE',  ( 1.000000000000000000, 0.0000000000000000000, 0.0000000000000000000 ) ) ;
#222 = DATE_TIME_ROLE ( 'creation_date' ) ;
#223 = APPLICATION_CONTEXT ( 'configuration controlled 3d designs of mechanical parts and assemblies' ) ;
#224 = APPROVAL_DATE_TIME ( #3, #62 ) ;
#225 = LINE ( 'NONE', #268, #104 ) ;
#226 = MECHANICAL_CONTEXT ( 'NONE', #188, 'mechanical' ) ;
#227 = EDGE_CURVE ( 'NONE', #28, #279, #331, .T. ) ;
#228 = DATE_TIME_ROLE ( 'creation_date' ) ;
#229 = EDGE_LOOP ( 'NONE', ( #56, #299, #291, #150, #140 ) ) ;
#230 = DATE_AND_TIME ( #307, #39 ) ;
#231 = EDGE_CURVE ( 'NONE', #250, #28, #29, .T. ) ;
#232 = DESIGN_CONTEXT ( 'detailed design', #125, 'design' ) ;
#233 = EDGE_LOOP ( 'NONE', ( #15, #272, #121, #110 ) ) ;
#234 = APPROVAL_PERSON_ORGANIZATION ( #322, #84, #79 ) ;
#235 = CC_DESIGN_PERSON_AND_ORGANIZATION_ASSIGNMENT ( #295, #344, ( #73 ) ) ;
#236 = CARTESIAN_POINT ( 'NONE',  ( 2.484127786961122000, 6.250746952420601400, 0.0000000000000000000 ) ) ;
#237 = DIRECTION ( 'NONE',  ( -0.0000000000000000000, -0.0000000000000000000, -1.000000000000000000 ) ) ;
#238 = COORDINATED_UNIVERSAL_TIME_OFFSET ( 8, 0, .AHEAD. ) ;
#239 = ORIENTED_EDGE ( 'NONE', *, *, #320, .T. ) ;
#240 = DIRECTION ( 'NONE',  ( -1.000000000000000000, -3.469446951953614200E-016, 0.0000000000000000000 ) ) ;
#241 = VECTOR ( 'NONE', #139, 1000.000000000000000 ) ;
#242 = ORGANIZATION ( 'Î´Ö¸¶¨', 'Î´Ö¸¶¨', '' ) ;
#243 = PRODUCT_DEFINITION ( 'Î´Öª', '', #73, #169 ) ;
#244 = CARTESIAN_POINT ( 'NONE',  ( 6.628385983379189400, 2.106488756002515000, 10.00000000000000000 ) ) ;
#245 = DIRECTION ( 'NONE',  ( 0.0000000000000000000, 1.000000000000000000, 0.0000000000000000000 ) ) ;
#246 = DIRECTION ( 'NONE',  ( 0.0000000000000000000, 0.0000000000000000000, 1.000000000000000000 ) ) ;
#247 = ADVANCED_FACE ( 'NONE', ( #253 ), #47, .F. ) ;
#248 = APPROVAL_ROLE ( '' ) ;
#249 = CALENDAR_DATE ( 2019, 24, 7 ) ;
#250 = VERTEX_POINT ( 'NONE', #23 ) ;
#251 = APPROVAL_ROLE ( '' ) ;
#252 = APPROVAL_STATUS ( 'not_yet_approved' ) ;
#253 = FACE_OUTER_BOUND ( 'NONE', #168, .T. ) ;
#254 = ADVANCED_FACE ( 'NONE', ( #309 ), #119, .F. ) ;
#255 = APPLICATION_PROTOCOL_DEFINITION ( 'international standard', 'config_control_design', 1994, #125 ) ;
#256 = PERSON_AND_ORGANIZATION ( #335, #242 ) ;
#257 = APPROVAL_DATE_TIME ( #64, #321 ) ;
#258 = EDGE_CURVE ( 'NONE', #43, #126, #114, .T. ) ;
#259 = FACE_OUTER_BOUND ( 'NONE', #53, .T. ) ;
#260 = CALENDAR_DATE ( 2019, 24, 7 ) ;
#261 = EDGE_CURVE ( 'NONE', #6, #43, #4, .T. ) ;
#262 = CARTESIAN_POINT ( 'NONE',  ( 6.628385983379189400, 2.106488756002515000, 10.00000000000000000 ) ) ;
#263 = CALENDAR_DATE ( 2019, 24, 7 ) ;
#264 = DIRECTION ( 'NONE',  ( 0.7071067811865491300, 0.7071067811865459100, -0.0000000000000000000 ) ) ;
#265 = VERTEX_POINT ( 'NONE', #306 ) ;
#266 = COORDINATED_UNIVERSAL_TIME_OFFSET ( 8, 0, .AHEAD. ) ;
#267 = EDGE_CURVE ( 'NONE', #43, #250, #61, .T. ) ;
#268 = CARTESIAN_POINT ( 'NONE',  ( 6.624762525151322900, 16.24712349419275600, 10.00000000000000000 ) ) ;
#269 = CARTESIAN_POINT ( 'NONE',  ( 6.628385983379189400, 2.106488756002515000, 10.00000000000000000 ) ) ;
#270 = EDGE_CURVE ( 'NONE', #203, #207, #24, .T. ) ;
#271 = CARTESIAN_POINT ( 'NONE',  ( 16.62476252515132200, 16.24712349419276000, 10.00000000000000000 ) ) ;
#272 = ORIENTED_EDGE ( 'NONE', *, *, #343, .F. ) ;
#273 = PERSON_AND_ORGANIZATION ( #335, #242 ) ;
#274 = COORDINATED_UNIVERSAL_TIME_OFFSET ( 8, 0, .AHEAD. ) ;
#275 = DIRECTION ( 'NONE',  ( 1.000000000000000000, 0.0000000000000000000, -0.0000000000000000000 ) ) ;
#276 = CARTESIAN_POINT ( 'NONE',  ( 0.0000000000000000000, 0.0000000000000000000, 0.0000000000000000000 ) ) ;
#277 = AXIS2_PLACEMENT_3D ( 'NONE', #50, #141, #221 ) ;
#278 = DIRECTION ( 'NONE',  ( 1.000000000000000000, 0.0000000000000000000, -0.0000000000000000000 ) ) ;
#279 = VERTEX_POINT ( 'NONE', #144 ) ;
#280 = DIRECTION ( 'NONE',  ( -0.0000000000000000000, -0.0000000000000000000, -1.000000000000000000 ) ) ;
#281 = EDGE_CURVE ( 'NONE', #126, #318, #69, .T. ) ;
#282 = APPROVAL_STATUS ( 'not_yet_approved' ) ;
#283 = ORIENTED_EDGE ( 'NONE', *, *, #258, .F. ) ;
#284 = DATE_AND_TIME ( #17, #76 ) ;
#285 = VECTOR ( 'NONE', #115, 1000.000000000000000 ) ;
#286 = CC_DESIGN_APPROVAL ( #217, ( #108 ) ) ;
#287 = SECURITY_CLASSIFICATION_LEVEL ( 'unclassified' ) ;
#288 = DATE_AND_TIME ( #323, #313 ) ;
#289 = PERSON_AND_ORGANIZATION ( #335, #242 ) ;
#290 = AXIS2_PLACEMENT_3D ( 'NONE', #66, #134, #324 ) ;
#291 = ORIENTED_EDGE ( 'NONE', *, *, #320, .F. ) ;
#292 = VECTOR ( 'NONE', #216, 1000.000000000000000 ) ;
#293 = APPROVAL ( #282, 'Î´Ö¸¶¨' ) ;
#294 = SHAPE_DEFINITION_REPRESENTATION ( #35, #31 ) ;
#295 = PERSON_AND_ORGANIZATION ( #335, #242 ) ;
#296 = CC_DESIGN_DATE_AND_TIME_ASSIGNMENT ( #36, #222, ( #108 ) ) ;
#297 = LOCAL_TIME ( 10, 14, 8.000000000000000000, #33 ) ;
#298 = CARTESIAN_POINT ( 'NONE',  ( 16.62476252515132200, 16.24712349419276000, 10.00000000000000000 ) ) ;
#299 = ORIENTED_EDGE ( 'NONE', *, *, #270, .F. ) ;
#300 = APPROVAL_PERSON_ORGANIZATION ( #174, #62, #152 ) ;
#301 = EDGE_LOOP ( 'NONE', ( #86, #332, #103, #2 ) ) ;
#302 = APPROVAL_PERSON_ORGANIZATION ( #12, #217, #197 ) ;
#303 = APPROVAL_DATE_TIME ( #325, #293 ) ;
#304 = SECURITY_CLASSIFICATION ( '', '', #287 ) ;
#305 = CARTESIAN_POINT ( 'NONE',  ( 16.62476252515132200, 6.247123494192758000, 10.00000000000000000 ) ) ;
#306 = CARTESIAN_POINT ( 'NONE',  ( 2.484127786961122000, 6.250746952420601400, 10.00000000000000000 ) ) ;
#307 = CALENDAR_DATE ( 2019, 24, 7 ) ;
#308 = PRODUCT ( '365502', '365502', '', ( #226 ) ) ;
#309 = FACE_OUTER_BOUND ( 'NONE', #229, .T. ) ;
#310 = MECHANICAL_CONTEXT ( 'NONE', #46, 'mechanical' ) ;
#311 = AXIS2_PLACEMENT_3D ( 'NONE', #210, #70, #212 ) ;
#312 = VECTOR ( 'NONE', #237, 1000.000000000000000 ) ;
#313 = LOCAL_TIME ( 10, 14, 8.000000000000000000, #92 ) ;
#314 = PERSON_AND_ORGANIZATION_ROLE ( 'design_supplier' ) ;
#315 = SECURITY_CLASSIFICATION_LEVEL ( 'unclassified' ) ;
#316 = CC_DESIGN_APPROVAL ( #153, ( #243 ) ) ;
#317 = APPROVAL_PERSON_ORGANIZATION ( #52, #293, #251 ) ;
#318 = VERTEX_POINT ( 'NONE', #163 ) ;
#319 = ORIENTED_EDGE ( 'NONE', *, *, #195, .T. ) ;
#320 = EDGE_CURVE ( 'NONE', #279, #203, #22, .T. ) ;
#321 = APPROVAL ( #166, 'Î´Ö¸¶¨' ) ;
#322 = PERSON_AND_ORGANIZATION ( #335, #242 ) ;
#323 = CALENDAR_DATE ( 2019, 24, 7 ) ;
#324 = DIRECTION ( 'NONE',  ( 0.0000000000000000000, 0.0000000000000000000, 1.000000000000000000 ) ) ;
#325 = DATE_AND_TIME ( #263, #1 ) ;
#326 = DIRECTION ( 'NONE',  ( -0.3826834323650831800, -0.9238795325112894000, 0.0000000000000000000 ) ) ;
#327 = DIRECTION ( 'NONE',  ( 1.000000000000000000, 3.469446951953614200E-016, 0.0000000000000000000 ) ) ;
#328 = LOCAL_TIME ( 10, 14, 8.000000000000000000, #182 ) ;
#329 = AXIS2_PLACEMENT_3D ( 'NONE', #94, #93, #165 ) ;
#330 = LOCAL_TIME ( 10, 14, 8.000000000000000000, #60 ) ;
#331 = LINE ( 'NONE', #183, #187 ) ;
#332 = ORIENTED_EDGE ( 'NONE', *, *, #267, .F. ) ;
#333 = DIRECTION ( 'NONE',  ( -0.0000000000000000000, -0.0000000000000000000, -1.000000000000000000 ) ) ;
#334 = ADVANCED_FACE ( 'NONE', ( #142 ), #113, .T. ) ;
#335 = PERSON ( 'Î´Ö¸¶¨', 'Î´Ö¸¶¨', 'Î´Ö¸¶¨', ('Î´Ö¸¶¨'), ('Î´Ö¸¶¨'), ('Î´Ö¸¶¨') ) ;
#336 = CC_DESIGN_PERSON_AND_ORGANIZATION_ASSIGNMENT ( #219, #314, ( #73 ) ) ;
#337 = DIRECTION ( 'NONE',  ( -0.3826834323650831800, -0.9238795325112894000, 0.0000000000000000000 ) ) ;
#338 = CARTESIAN_POINT ( 'NONE',  ( 6.628385983379189400, 2.106488756002515000, 0.0000000000000000000 ) ) ;
#339 = CLOSED_SHELL ( 'NONE', ( #49, #25, #120, #247, #118, #334, #254 ) ) ;
#340 = VECTOR ( 'NONE', #186, 1000.000000000000000 ) ;
#341 = PERSON_AND_ORGANIZATION_ROLE ( 'creator' ) ;
#342 = PERSON_AND_ORGANIZATION_ROLE ( 'creator' ) ;
#343 = EDGE_CURVE ( 'NONE', #6, #207, #147, .T. ) ;
#344 = PERSON_AND_ORGANIZATION_ROLE ( 'creator' ) ;
#345 = FACE_OUTER_BOUND ( 'NONE', #301, .T. ) ;
#346 = COORDINATED_UNIVERSAL_TIME_OFFSET ( 8, 0, .AHEAD. ) ;
#347 = PERSON_AND_ORGANIZATION_ROLE ( 'classification_officer' ) ;
#348 = CC_DESIGN_PERSON_AND_ORGANIZATION_ASSIGNMENT ( #289, #342, ( #243 ) ) ;
ENDSEC;
END-ISO-10303-21;
